ISO-10303-21;
HEADER;
FILE_DESCRIPTION (( 'STEP AP203' ),
    '1' );
FILE_NAME ('A40-10.STEP',
    '2018-03-22T14:25:46',
    ( 'User2' ),
    ( '' ),
    'SwSTEP 2.0',
    'SolidWorks 2007',
    '' );
FILE_SCHEMA (( 'CONFIG_CONTROL_DESIGN' ));
ENDSEC;

DATA;
#1 = LINE ( 'NONE', #197, #22 ) ;
#2 = CIRCLE ( 'NONE', #388, 7.000000000000000000 ) ;
#3 = VECTOR ( 'NONE', #204, 1000.000000000000000 ) ;
#4 = LINE ( 'NONE', #255, #18 ) ;
#5 = VECTOR ( 'NONE', #215, 1000.000000000000000 ) ;
#6 = LINE ( 'NONE', #178, #5 ) ;
#7 = FACE_OUTER_BOUND ( 'NONE', #318, .T. ) ;
#8 = LINE ( 'NONE', #201, #16 ) ;
#9 = VECTOR ( 'NONE', #216, 1000.000000000000000 ) ;
#10 = CIRCLE ( 'NONE', #387, 6.000000000000000900 ) ;
#11 = LINE ( 'NONE', #234, #3 ) ;
#12 = VECTOR ( 'NONE', #167, 1000.000000000000000 ) ;
#13 = LINE ( 'NONE', #257, #9 ) ;
#14 = CYLINDRICAL_SURFACE ( 'NONE', #111, 7.000000000000000000 ) ;
#15 = LINE ( 'NONE', #213, #78 ) ;
#16 = VECTOR ( 'NONE', #253, 1000.000000000000000 ) ;
#17 = FACE_OUTER_BOUND ( 'NONE', #310, .T. ) ;
#18 = VECTOR ( 'NONE', #233, 1000.000000000000000 ) ;
#19 = LINE ( 'NONE', #282, #12 ) ;
#20 = FACE_OUTER_BOUND ( 'NONE', #336, .T. ) ;
#21 = CIRCLE ( 'NONE', #391, 7.000000000000000000 ) ;
#22 = VECTOR ( 'NONE', #220, 1000.000000000000000 ) ;
#23 = PRODUCT_DEFINITION_SHAPE ( 'NONE', 'NONE',  #396 ) ;
#24 = DESIGN_CONTEXT ( 'detailed design', #239, 'design' ) ;
#25 = CALENDAR_DATE ( 2018, 22, 3 ) ;
#26 = DATE_AND_TIME ( #25, #100 ) ;
#27 = CC_DESIGN_PERSON_AND_ORGANIZATION_ASSIGNMENT ( #362, #241, ( #30 ) ) ;
#28 = APPROVAL ( #174, 'UNSPECIFIED' ) ;
#29 = CC_DESIGN_APPROVAL ( #28, ( #30 ) ) ;
#30 = PRODUCT_DEFINITION_FORMATION_WITH_SPECIFIED_SOURCE ( 'ANY', '', #128, .NOT_KNOWN. ) ;
#31 = CC_DESIGN_PERSON_AND_ORGANIZATION_ASSIGNMENT ( #365, #254, ( #364 ) ) ;
#32 = CC_DESIGN_DATE_AND_TIME_ASSIGNMENT ( #369, #225, ( #364 ) ) ;
#33 = APPROVAL ( #230, 'UNSPECIFIED' ) ;
#34 = CC_DESIGN_PERSON_AND_ORGANIZATION_ASSIGNMENT ( #363, #205, ( #30 ) ) ;
#35 = CC_DESIGN_DATE_AND_TIME_ASSIGNMENT ( #287, #224, ( #396 ) ) ;
#36 = CC_DESIGN_APPROVAL ( #33, ( #364 ) ) ;
#37 = CC_DESIGN_SECURITY_CLASSIFICATION ( #364, ( #30 ) ) ;
#38 = PRODUCT_RELATED_PRODUCT_CATEGORY ( 'detail', '', ( #128 ) ) ;
#39 = ADVANCED_FACE ( 'NONE', ( #351 ), #301, .F. ) ;
#40 = ADVANCED_FACE ( 'NONE', ( #328 ), #343, .T. ) ;
#41 = UNCERTAINTY_MEASURE_WITH_UNIT (LENGTH_MEASURE( 1.000000000000000100E-005 ), #256, 'distance_accuracy_value', 'NONE');
#42 = COORDINATED_UNIVERSAL_TIME_OFFSET ( 3, 0, .BEHIND. ) ;
#43 = LOCAL_TIME ( 11, 25, 46.00000000000000000, #42 ) ;
#44 = ADVANCED_FACE ( 'NONE', ( #346 ), #247, .T. ) ;
#45 = ADVANCED_FACE ( 'NONE', ( #299 ), #246, .F. ) ;
#46 = ADVANCED_FACE ( 'NONE', ( #348 ), #333, .F. ) ;
#47 = ADVANCED_FACE ( 'NONE', ( #349, #345 ), #158, .T. ) ;
#48 = ADVANCED_FACE ( 'NONE', ( #352 ), #243, .F. ) ;
#49 = ADVANCED_FACE ( 'NONE', ( #20 ), #150, .F. ) ;
#50 = ADVANCED_FACE ( 'NONE', ( #17 ), #203, .F. ) ;
#51 = ADVANCED_FACE ( 'NONE', ( #7 ), #14, .T. ) ;
#52 = ADVANCED_BREP_SHAPE_REPRESENTATION ( 'A40-10', ( #101, #392 ), #117 ) ;
#53 = PERSON_AND_ORGANIZATION ( #129, #116 ) ;
#54 = APPROVAL_PERSON_ORGANIZATION ( #53, #386, #252 ) ;
#55 = PERSON_AND_ORGANIZATION ( #129, #116 ) ;
#56 = ORIENTED_EDGE ( 'NONE', *, *, #94, .T. ) ;
#57 = ORIENTED_EDGE ( 'NONE', *, *, #98, .T. ) ;
#58 = ORIENTED_EDGE ( 'NONE', *, *, #121, .F. ) ;
#59 = ORIENTED_EDGE ( 'NONE', *, *, #120, .T. ) ;
#60 = ORIENTED_EDGE ( 'NONE', *, *, #124, .T. ) ;
#61 = ORIENTED_EDGE ( 'NONE', *, *, #63, .F. ) ;
#62 = EDGE_CURVE ( 'NONE', #218, #163, #4, .T. ) ;
#63 = EDGE_CURVE ( 'NONE', #244, #222, #21, .T. ) ;
#64 = EDGE_CURVE ( 'NONE', #147, #138, #1, .T. ) ;
#65 = EDGE_CURVE ( 'NONE', #235, #154, #19, .T. ) ;
#66 = EDGE_CURVE ( 'NONE', #133, #258, #13, .T. ) ;
#67 = EDGE_CURVE ( 'NONE', #258, #138, #11, .T. ) ;
#68 = EDGE_CURVE ( 'NONE', #176, #171, #10, .T. ) ;
#69 = EDGE_CURVE ( 'NONE', #154, #258, #6, .T. ) ;
#70 = EDGE_CURVE ( 'NONE', #138, #163, #8, .T. ) ;
#71 = PERSON_AND_ORGANIZATION ( #129, #116 ) ;
#72 = APPROVAL_DATE_TIME ( #26, #386 ) ;
#73 = PERSON_AND_ORGANIZATION ( #129, #116 ) ;
#74 = FACE_OUTER_BOUND ( 'NONE', #297, .T. ) ;
#75 = LINE ( 'NONE', #271, #79 ) ;
#76 = VECTOR ( 'NONE', #237, 1000.000000000000000 ) ;
#77 = LINE ( 'NONE', #169, #81 ) ;
#78 = VECTOR ( 'NONE', #283, 1000.000000000000000 ) ;
#79 = VECTOR ( 'NONE', #274, 1000.000000000000000 ) ;
#80 = CIRCLE ( 'NONE', #389, 7.000000000000000000 ) ;
#81 = VECTOR ( 'NONE', #269, 1000.000000000000000 ) ;
#82 = LINE ( 'NONE', #183, #87 ) ;
#83 = CIRCLE ( 'NONE', #385, 6.000000000000000900 ) ;
#84 = LINE ( 'NONE', #168, #86 ) ;
#85 = LINE ( 'NONE', #162, #76 ) ;
#86 = VECTOR ( 'NONE', #192, 1000.000000000000000 ) ;
#87 = VECTOR ( 'NONE', #188, 1000.000000000000000 ) ;
#88 = LINE ( 'NONE', #221, #91 ) ;
#89 = CIRCLE ( 'NONE', #384, 6.000000000000000900 ) ;
#90 = VECTOR ( 'NONE', #191, 1000.000000000000000 ) ;
#91 = VECTOR ( 'NONE', #219, 1000.000000000000000 ) ;
#92 = LINE ( 'NONE', #270, #90 ) ;
#93 = EDGE_CURVE ( 'NONE', #155, #259, #2, .T. ) ;
#94 = EDGE_CURVE ( 'NONE', #244, #259, #15, .T. ) ;
#95 = EDGE_CURVE ( 'NONE', #133, #147, #85, .T. ) ;
#96 = EDGE_CURVE ( 'NONE', #218, #235, #75, .T. ) ;
#97 = EDGE_CURVE ( 'NONE', #163, #154, #82, .T. ) ;
#98 = EDGE_CURVE ( 'NONE', #259, #155, #80, .T. ) ;
#99 = COORDINATED_UNIVERSAL_TIME_OFFSET ( 3, 0, .BEHIND. ) ;
#100 = LOCAL_TIME ( 11, 25, 46.00000000000000000, #99 ) ;
#101 = MANIFOLD_SOLID_BREP ( 'NONE', #311 ) ;
#102 = AXIS2_PLACEMENT_3D ( 'NONE', #145, #131, #141 ) ;
#103 = AXIS2_PLACEMENT_3D ( 'NONE', #172, #152, #284 ) ;
#104 = AXIS2_PLACEMENT_3D ( 'NONE', #175, #135, #226 ) ;
#105 = AXIS2_PLACEMENT_3D ( 'NONE', #148, #202, #227 ) ;
#106 = AXIS2_PLACEMENT_3D ( 'NONE', #156, #281, #198 ) ;
#107 = AXIS2_PLACEMENT_3D ( 'NONE', #153, #164, #210 ) ;
#108 = AXIS2_PLACEMENT_3D ( 'NONE', #165, #143, #130 ) ;
#109 = AXIS2_PLACEMENT_3D ( 'NONE', #134, #229, #149 ) ;
#110 = AXIS2_PLACEMENT_3D ( 'NONE', #136, #151, #262 ) ;
#111 = AXIS2_PLACEMENT_3D ( 'NONE', #251, #160, #132 ) ;
#112 = CIRCLE ( 'NONE', #390, 6.000000000000000900 ) ;
#113 = VECTOR ( 'NONE', #267, 1000.000000000000000 ) ;
#114 = LINE ( 'NONE', #187, #113 ) ;
#115 = ADVANCED_FACE ( 'NONE', ( #74 ), #263, .F. ) ;
#116 = ORGANIZATION ( 'UNSPECIFIED', 'UNSPECIFIED', '' ) ;
#117 =( GEOMETRIC_REPRESENTATION_CONTEXT ( 3 ) GLOBAL_UNCERTAINTY_ASSIGNED_CONTEXT ( ( #41 ) ) GLOBAL_UNIT_ASSIGNED_CONTEXT ( ( #256, #173, #217 ) ) REPRESENTATION_CONTEXT ( 'NONE', 'WORKASPACE' ) );
#118 = SHAPE_DEFINITION_REPRESENTATION ( #23, #52 ) ;
#119 = EDGE_CURVE ( 'NONE', #147, #218, #77, .T. ) ;
#120 = EDGE_CURVE ( 'NONE', #248, #260, #83, .T. ) ;
#121 = EDGE_CURVE ( 'NONE', #248, #171, #84, .T. ) ;
#122 = EDGE_CURVE ( 'NONE', #222, #155, #88, .T. ) ;
#123 = EDGE_CURVE ( 'NONE', #171, #176, #89, .T. ) ;
#124 = EDGE_CURVE ( 'NONE', #260, #176, #92, .T. ) ;
#125 = EDGE_CURVE ( 'NONE', #235, #133, #114, .T. ) ;
#126 = EDGE_CURVE ( 'NONE', #260, #248, #112, .T. ) ;
#127 = EDGE_CURVE ( 'NONE', #222, #244, #377, .T. ) ;
#128 = PRODUCT ( 'A40-10', 'A40-10', '', ( #223 ) ) ;
#129 = PERSON ( 'UNSPECIFIED', 'UNSPECIFIED', 'UNSPECIFIED', ('UNSPECIFIED'), ('UNSPECIFIED'), ('UNSPECIFIED') ) ;
#130 = DIRECTION ( 'NONE',  ( 0.0000000000000000000, 0.0000000000000000000, -1.000000000000000000 ) ) ;
#131 = DIRECTION ( 'NONE',  ( -0.0000000000000000000, -1.000000000000000000, -0.0000000000000000000 ) ) ;
#132 = DIRECTION ( 'NONE',  ( 0.0000000000000000000, 0.0000000000000000000, -1.000000000000000000 ) ) ;
#133 = VERTEX_POINT ( 'NONE', #206 ) ;
#134 = CARTESIAN_POINT ( 'NONE',  ( 0.0000000000000000000, 14.00000000000000000, 0.0000000000000000000 ) ) ;
#135 = DIRECTION ( 'NONE',  ( -0.0000000000000000000, -1.000000000000000000, -0.0000000000000000000 ) ) ;
#136 = CARTESIAN_POINT ( 'NONE',  ( 24.99999999999999300, 4.000000000000000000, -25.00000000000000000 ) ) ;
#137 = DIRECTION ( 'NONE',  ( 0.0000000000000000000, 0.0000000000000000000, 1.000000000000000000 ) ) ;
#138 = VERTEX_POINT ( 'NONE', #195 ) ;
#139 = DIRECTION ( 'NONE',  ( 0.0000000000000000000, -0.0000000000000000000, 1.000000000000000000 ) ) ;
#140 = DIRECTION ( 'NONE',  ( 0.0000000000000000000, -1.000000000000000000, -0.0000000000000000000 ) ) ;
#141 = DIRECTION ( 'NONE',  ( 0.0000000000000000000, 0.0000000000000000000, -1.000000000000000000 ) ) ;
#142 = APPLICATION_CONTEXT ( 'configuration controlled 3d designs of mechanical parts and assemblies' ) ;
#143 = DIRECTION ( 'NONE',  ( -0.0000000000000000000, -1.000000000000000000, -0.0000000000000000000 ) ) ;
#144 = DIRECTION ( 'NONE',  ( 0.0000000000000000000, 1.000000000000000000, 0.0000000000000000000 ) ) ;
#145 = CARTESIAN_POINT ( 'NONE',  ( 0.0000000000000000000, 14.00000000000000000, 0.0000000000000000000 ) ) ;
#146 = APPLICATION_PROTOCOL_DEFINITION ( 'international standard', 'config_control_design', 1994, #142 ) ;
#147 = VERTEX_POINT ( 'NONE', #285 ) ;
#148 = CARTESIAN_POINT ( 'NONE',  ( -24.99999999999999300, 4.000000000000000000, 25.00000000000001400 ) ) ;
#149 = DIRECTION ( 'NONE',  ( 0.0000000000000000000, -0.0000000000000000000, 1.000000000000000000 ) ) ;
#150 = PLANE ( 'NONE',  #110 ) ;
#151 = DIRECTION ( 'NONE',  ( -1.000000000000000000, 0.0000000000000000000, 0.0000000000000000000 ) ) ;
#152 = DIRECTION ( 'NONE',  ( -4.163336342344338500E-016, 0.0000000000000000000, -1.000000000000000000 ) ) ;
#153 = CARTESIAN_POINT ( 'NONE',  ( -25.00000000000000700, 4.000000000000000000, -25.00000000000000000 ) ) ;
#154 = VERTEX_POINT ( 'NONE', #179 ) ;
#155 = VERTEX_POINT ( 'NONE', #185 ) ;
#156 = CARTESIAN_POINT ( 'NONE',  ( -24.99999999999999300, 0.0000000000000000000, 25.00000000000001400 ) ) ;
#157 = CARTESIAN_POINT ( 'NONE',  ( 7.347880794884120700E-016, 14.00000000000000000, 6.000000000000000900 ) ) ;
#158 = PLANE ( 'NONE',  #109 ) ;
#159 = CARTESIAN_POINT ( 'NONE',  ( 0.0000000000000000000, 4.000000000000000000, 0.0000000000000000000 ) ) ;
#160 = DIRECTION ( 'NONE',  ( -0.0000000000000000000, -1.000000000000000000, -0.0000000000000000000 ) ) ;
#161 = DIRECTION ( 'NONE',  ( 1.000000000000000000, 0.0000000000000000000, 0.0000000000000000000 ) ) ;
#162 = CARTESIAN_POINT ( 'NONE',  ( 24.99999999999999300, 4.000000000000000000, -25.00000000000000000 ) ) ;
#163 = VERTEX_POINT ( 'NONE', #184 ) ;
#164 = DIRECTION ( 'NONE',  ( 0.0000000000000000000, 0.0000000000000000000, 1.000000000000000000 ) ) ;
#165 = CARTESIAN_POINT ( 'NONE',  ( 0.0000000000000000000, 14.00000000000000000, 0.0000000000000000000 ) ) ;
#166 = DIRECTION ( 'NONE',  ( 1.000000000000000000, 0.0000000000000000000, -2.775557561562890400E-016 ) ) ;
#167 = DIRECTION ( 'NONE',  ( -0.0000000000000000000, -1.000000000000000000, -0.0000000000000000000 ) ) ;
#168 = CARTESIAN_POINT ( 'NONE',  ( 7.347880794884120700E-016, 14.00000000000000000, 6.000000000000000900 ) ) ;
#169 = CARTESIAN_POINT ( 'NONE',  ( -25.00000000000000700, 4.000000000000000000, -25.00000000000000000 ) ) ;
#170 = PERSON_AND_ORGANIZATION_ROLE ( 'creator' ) ;
#171 = VERTEX_POINT ( 'NONE', #190 ) ;
#172 = CARTESIAN_POINT ( 'NONE',  ( -24.99999999999999300, 4.000000000000000000, 25.00000000000001400 ) ) ;
#173 =( NAMED_UNIT ( * ) PLANE_ANGLE_UNIT ( ) SI_UNIT ( $, .RADIAN. ) );
#174 = APPROVAL_STATUS ( 'not_yet_approved' ) ;
#175 = CARTESIAN_POINT ( 'NONE',  ( 0.0000000000000000000, 14.00000000000000000, 0.0000000000000000000 ) ) ;
#176 = VERTEX_POINT ( 'NONE', #180 ) ;
#177 = CARTESIAN_POINT ( 'NONE',  ( 0.0000000000000000000, 4.000000000000000000, 0.0000000000000000000 ) ) ;
#178 = CARTESIAN_POINT ( 'NONE',  ( -24.99999999999999300, 0.0000000000000000000, 25.00000000000001400 ) ) ;
#179 = CARTESIAN_POINT ( 'NONE',  ( -24.99999999999999300, 0.0000000000000000000, 25.00000000000001400 ) ) ;
#180 = CARTESIAN_POINT ( 'NONE',  ( 0.0000000000000000000, 4.000000000000000000, -6.000000000000000900 ) ) ;
#181 = DIRECTION ( 'NONE',  ( 0.0000000000000000000, 1.000000000000000000, 0.0000000000000000000 ) ) ;
#182 = CARTESIAN_POINT ( 'NONE',  ( -25.00000000000000700, 4.000000000000000000, -25.00000000000000000 ) ) ;
#183 = CARTESIAN_POINT ( 'NONE',  ( -25.00000000000000700, 0.0000000000000000000, -25.00000000000000000 ) ) ;
#184 = CARTESIAN_POINT ( 'NONE',  ( -25.00000000000000700, 0.0000000000000000000, -25.00000000000000000 ) ) ;
#185 = CARTESIAN_POINT ( 'NONE',  ( 8.572527594031473200E-016, 4.000000000000000000, 7.000000000000000000 ) ) ;
#186 = CARTESIAN_POINT ( 'NONE',  ( -25.00000000000000700, 4.000000000000000000, -25.00000000000000000 ) ) ;
#187 = CARTESIAN_POINT ( 'NONE',  ( -24.99999999999999300, 4.000000000000000000, 25.00000000000001400 ) ) ;
#188 = DIRECTION ( 'NONE',  ( 2.775557561562890400E-016, 0.0000000000000000000, 1.000000000000000000 ) ) ;
#189 = DIRECTION ( 'NONE',  ( 0.0000000000000000000, -1.000000000000000000, -0.0000000000000000000 ) ) ;
#190 = CARTESIAN_POINT ( 'NONE',  ( 7.347880794884120700E-016, 4.000000000000000000, 6.000000000000000900 ) ) ;
#191 = DIRECTION ( 'NONE',  ( -0.0000000000000000000, -1.000000000000000000, -0.0000000000000000000 ) ) ;
#192 = DIRECTION ( 'NONE',  ( -0.0000000000000000000, -1.000000000000000000, -0.0000000000000000000 ) ) ;
#193 = DIRECTION ( 'NONE',  ( 0.0000000000000000000, 0.0000000000000000000, 1.000000000000000000 ) ) ;
#194 = DIRECTION ( 'NONE',  ( 0.0000000000000000000, 0.0000000000000000000, 1.000000000000000000 ) ) ;
#195 = CARTESIAN_POINT ( 'NONE',  ( 24.99999999999999300, 0.0000000000000000000, -25.00000000000000000 ) ) ;
#196 = CARTESIAN_POINT ( 'NONE',  ( 0.0000000000000000000, 14.00000000000000000, 0.0000000000000000000 ) ) ;
#197 = CARTESIAN_POINT ( 'NONE',  ( 24.99999999999999300, 4.000000000000000000, -25.00000000000000000 ) ) ;
#198 = DIRECTION ( 'NONE',  ( 0.0000000000000000000, -0.0000000000000000000, 1.000000000000000000 ) ) ;
#199 = CARTESIAN_POINT ( 'NONE',  ( 0.0000000000000000000, 4.000000000000000000, 0.0000000000000000000 ) ) ;
#200 = DIRECTION ( 'NONE',  ( 0.0000000000000000000, 1.000000000000000000, 0.0000000000000000000 ) ) ;
#201 = CARTESIAN_POINT ( 'NONE',  ( -25.00000000000000700, 0.0000000000000000000, -25.00000000000000000 ) ) ;
#202 = DIRECTION ( 'NONE',  ( -0.0000000000000000000, 1.000000000000000000, 0.0000000000000000000 ) ) ;
#203 = PLANE ( 'NONE',  #107 ) ;
#204 = DIRECTION ( 'NONE',  ( -0.0000000000000000000, -0.0000000000000000000, -1.000000000000000000 ) ) ;
#205 = PERSON_AND_ORGANIZATION_ROLE ( 'design_supplier' ) ;
#206 = CARTESIAN_POINT ( 'NONE',  ( 24.99999999999999300, 4.000000000000000000, 24.99999999999999300 ) ) ;
#207 = APPROVAL_ROLE ( '' ) ;
#208 = DIRECTION ( 'NONE',  ( 0.0000000000000000000, 0.0000000000000000000, 1.000000000000000000 ) ) ;
#209 = APPROVAL_ROLE ( '' ) ;
#210 = DIRECTION ( 'NONE',  ( 1.000000000000000000, 0.0000000000000000000, -0.0000000000000000000 ) ) ;
#211 = CARTESIAN_POINT ( 'NONE',  ( 0.0000000000000000000, 14.00000000000000000, 0.0000000000000000000 ) ) ;
#212 = APPROVAL_STATUS ( 'not_yet_approved' ) ;
#213 = CARTESIAN_POINT ( 'NONE',  ( 0.0000000000000000000, 14.00000000000000000, -7.000000000000000000 ) ) ;
#214 = DIRECTION ( 'NONE',  ( -2.775557561562890400E-016, 0.0000000000000000000, -1.000000000000000000 ) ) ;
#215 = DIRECTION ( 'NONE',  ( 1.000000000000000000, 0.0000000000000000000, -4.163336342344338000E-016 ) ) ;
#216 = DIRECTION ( 'NONE',  ( -0.0000000000000000000, -1.000000000000000000, -0.0000000000000000000 ) ) ;
#217 =( NAMED_UNIT ( * ) SI_UNIT ( $, .STERADIAN. ) SOLID_ANGLE_UNIT ( ) );
#218 = VERTEX_POINT ( 'NONE', #186 ) ;
#219 = DIRECTION ( 'NONE',  ( -0.0000000000000000000, -1.000000000000000000, -0.0000000000000000000 ) ) ;
#220 = DIRECTION ( 'NONE',  ( -0.0000000000000000000, -1.000000000000000000, -0.0000000000000000000 ) ) ;
#221 = CARTESIAN_POINT ( 'NONE',  ( 8.572527594031473200E-016, 14.00000000000000000, 7.000000000000000000 ) ) ;
#222 = VERTEX_POINT ( 'NONE', #240 ) ;
#223 = MECHANICAL_CONTEXT ( 'NONE', #142, 'mechanical' ) ;
#224 = DATE_TIME_ROLE ( 'creation_date' ) ;
#225 = DATE_TIME_ROLE ( 'classification_date' ) ;
#226 = DIRECTION ( 'NONE',  ( 0.0000000000000000000, 0.0000000000000000000, -1.000000000000000000 ) ) ;
#227 = DIRECTION ( 'NONE',  ( 0.0000000000000000000, -0.0000000000000000000, 1.000000000000000000 ) ) ;
#228 = CARTESIAN_POINT ( 'NONE',  ( 0.0000000000000000000, 4.000000000000000000, -7.000000000000000000 ) ) ;
#229 = DIRECTION ( 'NONE',  ( 0.0000000000000000000, 1.000000000000000000, 0.0000000000000000000 ) ) ;
#230 = APPROVAL_STATUS ( 'not_yet_approved' ) ;
#231 = DIRECTION ( 'NONE',  ( 0.0000000000000000000, 0.0000000000000000000, 1.000000000000000000 ) ) ;
#232 = DIRECTION ( 'NONE',  ( 0.0000000000000000000, 1.000000000000000000, 0.0000000000000000000 ) ) ;
#233 = DIRECTION ( 'NONE',  ( -0.0000000000000000000, -1.000000000000000000, -0.0000000000000000000 ) ) ;
#234 = CARTESIAN_POINT ( 'NONE',  ( 24.99999999999999300, 0.0000000000000000000, -25.00000000000000000 ) ) ;
#235 = VERTEX_POINT ( 'NONE', #238 ) ;
#236 = PERSON_AND_ORGANIZATION_ROLE ( 'design_owner' ) ;
#237 = DIRECTION ( 'NONE',  ( -0.0000000000000000000, -0.0000000000000000000, -1.000000000000000000 ) ) ;
#238 = CARTESIAN_POINT ( 'NONE',  ( -24.99999999999999300, 4.000000000000000000, 25.00000000000001400 ) ) ;
#239 = APPLICATION_CONTEXT ( 'configuration controlled 3d designs of mechanical parts and assemblies' ) ;
#240 = CARTESIAN_POINT ( 'NONE',  ( 8.572527594031473200E-016, 14.00000000000000000, 7.000000000000000000 ) ) ;
#241 = PERSON_AND_ORGANIZATION_ROLE ( 'creator' ) ;
#242 = PLANE ( 'NONE',  #394 ) ;
#243 = PLANE ( 'NONE',  #106 ) ;
#244 = VERTEX_POINT ( 'NONE', #250 ) ;
#245 = DIRECTION ( 'NONE',  ( 0.0000000000000000000, 1.000000000000000000, 0.0000000000000000000 ) ) ;
#246 = PLANE ( 'NONE',  #103 ) ;
#247 = PLANE ( 'NONE',  #105 ) ;
#248 = VERTEX_POINT ( 'NONE', #157 ) ;
#249 = SECURITY_CLASSIFICATION_LEVEL ( 'unclassified' ) ;
#250 = CARTESIAN_POINT ( 'NONE',  ( 0.0000000000000000000, 14.00000000000000000, -7.000000000000000000 ) ) ;
#251 = CARTESIAN_POINT ( 'NONE',  ( 0.0000000000000000000, 14.00000000000000000, 0.0000000000000000000 ) ) ;
#252 = APPROVAL_ROLE ( '' ) ;
#253 = DIRECTION ( 'NONE',  ( -1.000000000000000000, -0.0000000000000000000, -0.0000000000000000000 ) ) ;
#254 = PERSON_AND_ORGANIZATION_ROLE ( 'classification_officer' ) ;
#255 = CARTESIAN_POINT ( 'NONE',  ( -25.00000000000000700, 4.000000000000000000, -25.00000000000000000 ) ) ;
#256 =( LENGTH_UNIT ( ) NAMED_UNIT ( * ) SI_UNIT ( .MILLI., .METRE. ) );
#257 = CARTESIAN_POINT ( 'NONE',  ( 24.99999999999999300, 4.000000000000000000, 24.99999999999999300 ) ) ;
#258 = VERTEX_POINT ( 'NONE', #277 ) ;
#259 = VERTEX_POINT ( 'NONE', #228 ) ;
#260 = VERTEX_POINT ( 'NONE', #272 ) ;
#261 = APPLICATION_PROTOCOL_DEFINITION ( 'international standard', 'config_control_design', 1994, #239 ) ;
#262 = DIRECTION ( 'NONE',  ( 0.0000000000000000000, 0.0000000000000000000, 1.000000000000000000 ) ) ;
#263 = PLANE ( 'NONE',  #381 ) ;
#264 = DIRECTION ( 'NONE',  ( 0.0000000000000000000, 0.0000000000000000000, 1.000000000000000000 ) ) ;
#265 = CARTESIAN_POINT ( 'NONE',  ( 0.0000000000000000000, 0.0000000000000000000, 0.0000000000000000000 ) ) ;
#266 = CARTESIAN_POINT ( 'NONE',  ( 0.0000000000000000000, 14.00000000000000000, 0.0000000000000000000 ) ) ;
#267 = DIRECTION ( 'NONE',  ( 1.000000000000000000, 0.0000000000000000000, -4.163336342344338000E-016 ) ) ;
#268 = CARTESIAN_POINT ( 'NONE',  ( -24.99999999999999300, 4.000000000000000000, 25.00000000000001400 ) ) ;
#269 = DIRECTION ( 'NONE',  ( -1.000000000000000000, -0.0000000000000000000, -0.0000000000000000000 ) ) ;
#270 = CARTESIAN_POINT ( 'NONE',  ( 0.0000000000000000000, 14.00000000000000000, -6.000000000000000900 ) ) ;
#271 = CARTESIAN_POINT ( 'NONE',  ( -25.00000000000000700, 4.000000000000000000, -25.00000000000000000 ) ) ;
#272 = CARTESIAN_POINT ( 'NONE',  ( 0.0000000000000000000, 14.00000000000000000, -6.000000000000000900 ) ) ;
#273 = DIRECTION ( 'NONE',  ( -0.0000000000000000000, 1.000000000000000000, 0.0000000000000000000 ) ) ;
#274 = DIRECTION ( 'NONE',  ( 2.775557561562890400E-016, 0.0000000000000000000, 1.000000000000000000 ) ) ;
#275 = DIRECTION ( 'NONE',  ( 0.0000000000000000000, 0.0000000000000000000, 1.000000000000000000 ) ) ;
#276 = CARTESIAN_POINT ( 'NONE',  ( 0.0000000000000000000, 14.00000000000000000, 0.0000000000000000000 ) ) ;
#277 = CARTESIAN_POINT ( 'NONE',  ( 24.99999999999999300, 0.0000000000000000000, 24.99999999999999300 ) ) ;
#278 = DIRECTION ( 'NONE',  ( 0.0000000000000000000, 0.0000000000000000000, 1.000000000000000000 ) ) ;
#279 = DIRECTION ( 'NONE',  ( 0.0000000000000000000, 0.0000000000000000000, 1.000000000000000000 ) ) ;
#280 = CARTESIAN_POINT ( 'NONE',  ( 0.0000000000000000000, 4.000000000000000000, 0.0000000000000000000 ) ) ;
#281 = DIRECTION ( 'NONE',  ( -0.0000000000000000000, 1.000000000000000000, 0.0000000000000000000 ) ) ;
#282 = CARTESIAN_POINT ( 'NONE',  ( -24.99999999999999300, 4.000000000000000000, 25.00000000000001400 ) ) ;
#283 = DIRECTION ( 'NONE',  ( -0.0000000000000000000, -1.000000000000000000, -0.0000000000000000000 ) ) ;
#284 = DIRECTION ( 'NONE',  ( -1.000000000000000000, 0.0000000000000000000, 4.163336342344338500E-016 ) ) ;
#285 = CARTESIAN_POINT ( 'NONE',  ( 24.99999999999999300, 4.000000000000000000, -25.00000000000000000 ) ) ;
#286 = DIRECTION ( 'NONE',  ( 0.0000000000000000000, 1.000000000000000000, 0.0000000000000000000 ) ) ;
#287 = DATE_AND_TIME ( #380, #43 ) ;
#288 = ORIENTED_EDGE ( 'NONE', *, *, #95, .T. ) ;
#289 = ORIENTED_EDGE ( 'NONE', *, *, #65, .F. ) ;
#290 = ORIENTED_EDGE ( 'NONE', *, *, #62, .F. ) ;
#291 = ORIENTED_EDGE ( 'NONE', *, *, #97, .T. ) ;
#292 = ORIENTED_EDGE ( 'NONE', *, *, #123, .F. ) ;
#293 = ORIENTED_EDGE ( 'NONE', *, *, #95, .F. ) ;
#294 = ORIENTED_EDGE ( 'NONE', *, *, #96, .F. ) ;
#295 = ORIENTED_EDGE ( 'NONE', *, *, #123, .T. ) ;
#296 = ORIENTED_EDGE ( 'NONE', *, *, #125, .T. ) ;
#297 = EDGE_LOOP ( 'NONE', ( #291, #289, #294, #312 ) ) ;
#298 = ORIENTED_EDGE ( 'NONE', *, *, #119, .T. ) ;
#299 = FACE_OUTER_BOUND ( 'NONE', #316, .T. ) ;
#300 = ORIENTED_EDGE ( 'NONE', *, *, #125, .F. ) ;
#301 = CYLINDRICAL_SURFACE ( 'NONE', #102, 6.000000000000000900 ) ;
#302 = ORIENTED_EDGE ( 'NONE', *, *, #119, .F. ) ;
#303 = ORIENTED_EDGE ( 'NONE', *, *, #93, .F. ) ;
#304 = EDGE_LOOP ( 'NONE', ( #307, #355, #308, #327 ) ) ;
#305 = ORIENTED_EDGE ( 'NONE', *, *, #64, .T. ) ;
#306 = EDGE_LOOP ( 'NONE', ( #320, #309, #330, #331 ) ) ;
#307 = ORIENTED_EDGE ( 'NONE', *, *, #127, .F. ) ;
#308 = ORIENTED_EDGE ( 'NONE', *, *, #93, .T. ) ;
#309 = ORIENTED_EDGE ( 'NONE', *, *, #70, .F. ) ;
#310 = EDGE_LOOP ( 'NONE', ( #326, #290, #302, #305 ) ) ;
#311 = CLOSED_SHELL ( 'NONE', ( #39, #40, #397, #115, #45, #49, #50, #48, #47, #51, #46, #44 ) ) ;
#312 = ORIENTED_EDGE ( 'NONE', *, *, #62, .T. ) ;
#313 = EDGE_LOOP ( 'NONE', ( #353, #296, #288, #298 ) ) ;
#314 = EDGE_LOOP ( 'NONE', ( #317, #324, #295, #325 ) ) ;
#315 = EDGE_LOOP ( 'NONE', ( #323, #292 ) ) ;
#316 = EDGE_LOOP ( 'NONE', ( #338, #329, #300, #350 ) ) ;
#317 = ORIENTED_EDGE ( 'NONE', *, *, #126, .T. ) ;
#318 = EDGE_LOOP ( 'NONE', ( #347, #61, #56, #57 ) ) ;
#319 = ORIENTED_EDGE ( 'NONE', *, *, #126, .F. ) ;
#320 = ORIENTED_EDGE ( 'NONE', *, *, #97, .F. ) ;
#321 = EDGE_LOOP ( 'NONE', ( #339, #342 ) ) ;
#322 = ORIENTED_EDGE ( 'NONE', *, *, #68, .T. ) ;
#323 = ORIENTED_EDGE ( 'NONE', *, *, #68, .F. ) ;
#324 = ORIENTED_EDGE ( 'NONE', *, *, #121, .T. ) ;
#325 = ORIENTED_EDGE ( 'NONE', *, *, #124, .F. ) ;
#326 = ORIENTED_EDGE ( 'NONE', *, *, #70, .T. ) ;
#327 = ORIENTED_EDGE ( 'NONE', *, *, #94, .F. ) ;
#328 = FACE_OUTER_BOUND ( 'NONE', #304, .T. ) ;
#329 = ORIENTED_EDGE ( 'NONE', *, *, #66, .F. ) ;
#330 = ORIENTED_EDGE ( 'NONE', *, *, #67, .F. ) ;
#331 = ORIENTED_EDGE ( 'NONE', *, *, #69, .F. ) ;
#332 = ORIENTED_EDGE ( 'NONE', *, *, #64, .F. ) ;
#333 = CYLINDRICAL_SURFACE ( 'NONE', #108, 6.000000000000000900 ) ;
#334 = ORIENTED_EDGE ( 'NONE', *, *, #120, .F. ) ;
#335 = EDGE_LOOP ( 'NONE', ( #319, #334 ) ) ;
#336 = EDGE_LOOP ( 'NONE', ( #337, #332, #293, #341 ) ) ;
#337 = ORIENTED_EDGE ( 'NONE', *, *, #67, .T. ) ;
#338 = ORIENTED_EDGE ( 'NONE', *, *, #69, .T. ) ;
#339 = ORIENTED_EDGE ( 'NONE', *, *, #63, .T. ) ;
#340 = ORIENTED_EDGE ( 'NONE', *, *, #98, .F. ) ;
#341 = ORIENTED_EDGE ( 'NONE', *, *, #66, .T. ) ;
#342 = ORIENTED_EDGE ( 'NONE', *, *, #127, .T. ) ;
#343 = CYLINDRICAL_SURFACE ( 'NONE', #104, 7.000000000000000000 ) ;
#344 = EDGE_LOOP ( 'NONE', ( #340, #303 ) ) ;
#345 = FACE_BOUND ( 'NONE', #335, .T. ) ;
#346 = FACE_OUTER_BOUND ( 'NONE', #315, .T. ) ;
#347 = ORIENTED_EDGE ( 'NONE', *, *, #122, .F. ) ;
#348 = FACE_OUTER_BOUND ( 'NONE', #354, .T. ) ;
#349 = FACE_OUTER_BOUND ( 'NONE', #321, .T. ) ;
#350 = ORIENTED_EDGE ( 'NONE', *, *, #65, .T. ) ;
#351 = FACE_OUTER_BOUND ( 'NONE', #314, .T. ) ;
#352 = FACE_OUTER_BOUND ( 'NONE', #306, .T. ) ;
#353 = ORIENTED_EDGE ( 'NONE', *, *, #96, .T. ) ;
#354 = EDGE_LOOP ( 'NONE', ( #58, #59, #60, #322 ) ) ;
#355 = ORIENTED_EDGE ( 'NONE', *, *, #122, .T. ) ;
#356 = APPROVAL_PERSON_ORGANIZATION ( #71, #28, #209 ) ;
#357 = COORDINATED_UNIVERSAL_TIME_OFFSET ( 3, 0, .BEHIND. ) ;
#358 = LOCAL_TIME ( 11, 25, 46.00000000000000000, #357 ) ;
#359 = CALENDAR_DATE ( 2018, 22, 3 ) ;
#360 = DATE_AND_TIME ( #359, #358 ) ;
#361 = APPROVAL_DATE_TIME ( #360, #28 ) ;
#362 = PERSON_AND_ORGANIZATION ( #129, #116 ) ;
#363 = PERSON_AND_ORGANIZATION ( #129, #116 ) ;
#364 = SECURITY_CLASSIFICATION ( '', '', #249 ) ;
#365 = PERSON_AND_ORGANIZATION ( #129, #116 ) ;
#366 = COORDINATED_UNIVERSAL_TIME_OFFSET ( 3, 0, .BEHIND. ) ;
#367 = LOCAL_TIME ( 11, 25, 46.00000000000000000, #366 ) ;
#368 = CALENDAR_DATE ( 2018, 22, 3 ) ;
#369 = DATE_AND_TIME ( #368, #367 ) ;
#370 = PERSON_AND_ORGANIZATION ( #129, #116 ) ;
#371 = APPROVAL_PERSON_ORGANIZATION ( #370, #33, #207 ) ;
#372 = COORDINATED_UNIVERSAL_TIME_OFFSET ( 3, 0, .BEHIND. ) ;
#373 = LOCAL_TIME ( 11, 25, 46.00000000000000000, #372 ) ;
#374 = CALENDAR_DATE ( 2018, 22, 3 ) ;
#375 = DATE_AND_TIME ( #374, #373 ) ;
#376 = APPROVAL_DATE_TIME ( #375, #33 ) ;
#377 = CIRCLE ( 'NONE', #393, 7.000000000000000000 ) ;
#378 = FACE_OUTER_BOUND ( 'NONE', #313, .T. ) ;
#379 = FACE_BOUND ( 'NONE', #344, .T. ) ;
#380 = CALENDAR_DATE ( 2018, 22, 3 ) ;
#381 = AXIS2_PLACEMENT_3D ( 'NONE', #182, #166, #214 ) ;
#382 = CC_DESIGN_APPROVAL ( #386, ( #396 ) ) ;
#383 = CC_DESIGN_PERSON_AND_ORGANIZATION_ASSIGNMENT ( #55, #236, ( #128 ) ) ;
#384 = AXIS2_PLACEMENT_3D ( 'NONE', #280, #189, #193 ) ;
#385 = AXIS2_PLACEMENT_3D ( 'NONE', #211, #144, #264 ) ;
#386 = APPROVAL ( #212, 'UNSPECIFIED' ) ;
#387 = AXIS2_PLACEMENT_3D ( 'NONE', #199, #140, #231 ) ;
#388 = AXIS2_PLACEMENT_3D ( 'NONE', #177, #200, #137 ) ;
#389 = AXIS2_PLACEMENT_3D ( 'NONE', #159, #181, #278 ) ;
#390 = AXIS2_PLACEMENT_3D ( 'NONE', #276, #286, #275 ) ;
#391 = AXIS2_PLACEMENT_3D ( 'NONE', #196, #245, #208 ) ;
#392 = AXIS2_PLACEMENT_3D ( 'NONE', #265, #279, #161 ) ;
#393 = AXIS2_PLACEMENT_3D ( 'NONE', #266, #232, #194 ) ;
#394 = AXIS2_PLACEMENT_3D ( 'NONE', #268, #273, #139 ) ;
#395 = CC_DESIGN_PERSON_AND_ORGANIZATION_ASSIGNMENT ( #73, #170, ( #396 ) ) ;
#396 = PRODUCT_DEFINITION ( 'UNKNOWN', '', #30, #24 ) ;
#397 = ADVANCED_FACE ( 'NONE', ( #378, #379 ), #242, .T. ) ;
ENDSEC;
END-ISO-10303-21;
