ISO-10303-21;
HEADER;
FILE_DESCRIPTION (( 'STEP AP203' ),
    '1' );
FILE_NAME ('B39-50.STEP',
    '2018-03-28T14:59:00',
    ( 'User2' ),
    ( '' ),
    'SwSTEP 2.0',
    'SolidWorks 2007',
    '' );
FILE_SCHEMA (( 'CONFIG_CONTROL_DESIGN' ));
ENDSEC;

DATA;
#1 = EDGE_LOOP ( 'NONE', ( #253, #346, #345, #254 ) ) ;
#2 = CARTESIAN_POINT ( 'NONE',  ( 9.741669750802271800, 6.500000000000000900, 50.00000000000000000 ) ) ;
#3 = CARTESIAN_POINT ( 'NONE',  ( 7.309405710818933400, 0.8999999999999998000, 50.00000000000000000 ) ) ;
#4 = CARTESIAN_POINT ( 'NONE',  ( 9.741669750802271800, 6.500000000000000900, 50.00000000000000000 ) ) ;
#5 = CARTESIAN_POINT ( 'NONE',  ( -1.741669750802277600, 6.500000000000001800, 50.00000000000000000 ) ) ;
#6 = CARTESIAN_POINT ( 'NONE',  ( 8.000000000000000000, -1.734723475976807100E-015, 50.00000000000000000 ) ) ;
#7 = DIRECTION ( 'NONE',  ( -0.9659258262890693100, 0.2588190451025171300, 0.0000000000000000000 ) ) ;
#8 = CARTESIAN_POINT ( 'NONE',  ( 0.6905942891810676900, 0.9000000000000000200, 0.0000000000000000000 ) ) ;
#9 = CARTESIAN_POINT ( 'NONE',  ( 8.000000000000000000, -2.195599280053263200E-015, 50.00000000000000000 ) ) ;
#10 = DIRECTION ( 'NONE',  ( -1.000000000000000000, 2.744499100066579100E-016, 0.0000000000000000000 ) ) ;
#11 = DIRECTION ( 'NONE',  ( 0.2588190451025178000, 0.9659258262890692000, 0.0000000000000000000 ) ) ;
#12 = PLANE ( 'NONE',  #46 ) ;
#13 = DIRECTION ( 'NONE',  ( 1.000000000000000000, -3.276123471175167400E-017, 0.0000000000000000000 ) ) ;
#14 = DIRECTION ( 'NONE',  ( -0.2588190451025171300, -0.9659258262890693100, 0.0000000000000000000 ) ) ;
#15 = DIRECTION ( 'NONE',  ( 1.000000000000000000, 0.0000000000000000000, -0.0000000000000000000 ) ) ;
#16 = PLANE ( 'NONE',  #56 ) ;
#17 = DIRECTION ( 'NONE',  ( 0.2588190451025171300, 0.9659258262890693100, -0.0000000000000000000 ) ) ;
#18 = CARTESIAN_POINT ( 'NONE',  ( 8.809921188433202500, 6.500000000000002700, 50.00000000000000000 ) ) ;
#19 = PLANE ( 'NONE',  #55 ) ;
#20 = PLANE ( 'NONE',  #37 ) ;
#21 = DIRECTION ( 'NONE',  ( 0.0000000000000000000, 0.0000000000000000000, 1.000000000000000000 ) ) ;
#22 = DIRECTION ( 'NONE',  ( -0.9659258262890689800, -0.2588190451025181900, 0.0000000000000000000 ) ) ;
#23 = DIRECTION ( 'NONE',  ( 2.744499100066579100E-016, 1.000000000000000000, -0.0000000000000000000 ) ) ;
#24 = DIRECTION ( 'NONE',  ( -1.000000000000000000, 1.861793563239946800E-015, -0.0000000000000000000 ) ) ;
#25 = DIRECTION ( 'NONE',  ( -3.276123471175167400E-017, -1.000000000000000000, 0.0000000000000000000 ) ) ;
#26 = CARTESIAN_POINT ( 'NONE',  ( 0.6905942891810676900, 0.9000000000000000200, 50.00000000000000000 ) ) ;
#27 = CARTESIAN_POINT ( 'NONE',  ( -0.8099211884332039300, 6.500000000000001800, 50.00000000000000000 ) ) ;
#28 = PLANE ( 'NONE',  #53 ) ;
#29 = CARTESIAN_POINT ( 'NONE',  ( 8.809921188433202500, 6.500000000000002700, 0.0000000000000000000 ) ) ;
#30 = PLANE ( 'NONE',  #41 ) ;
#31 = DIRECTION ( 'NONE',  ( -1.000000000000000000, 3.276123471175167400E-017, -0.0000000000000000000 ) ) ;
#32 = CARTESIAN_POINT ( 'NONE',  ( -0.8099211884332039300, 6.500000000000001800, 0.0000000000000000000 ) ) ;
#33 = DIRECTION ( 'NONE',  ( -1.000000000000000000, 1.861793563239946800E-015, -0.0000000000000000000 ) ) ;
#34 = DIRECTION ( 'NONE',  ( -0.0000000000000000000, -0.0000000000000000000, -1.000000000000000000 ) ) ;
#35 = DIRECTION ( 'NONE',  ( -0.2588190451025182400, 0.9659258262890690900, -0.0000000000000000000 ) ) ;
#36 = DIRECTION ( 'NONE',  ( 0.9659258262890692000, -0.2588190451025178000, 0.0000000000000000000 ) ) ;
#37 = AXIS2_PLACEMENT_3D ( 'NONE', #26, #25, #13 ) ;
#38 = PRODUCT_RELATED_PRODUCT_CATEGORY ( 'detail', '', ( #199 ) ) ;
#39 = CC_DESIGN_SECURITY_CLASSIFICATION ( #166, ( #49 ) ) ;
#40 = CC_DESIGN_APPROVAL ( #67, ( #166 ) ) ;
#41 = AXIS2_PLACEMENT_3D ( 'NONE', #9, #23, #10 ) ;
#42 = EDGE_CURVE ( 'NONE', #268, #291, #192, .T. ) ;
#43 = EDGE_CURVE ( 'NONE', #263, #260, #194, .T. ) ;
#44 = CC_DESIGN_APPROVAL ( #82, ( #49 ) ) ;
#45 = CC_DESIGN_PERSON_AND_ORGANIZATION_ASSIGNMENT ( #167, #233, ( #166 ) ) ;
#46 = AXIS2_PLACEMENT_3D ( 'NONE', #2, #7, #14 ) ;
#47 = CC_DESIGN_DATE_AND_TIME_ASSIGNMENT ( #309, #234, ( #166 ) ) ;
#48 = CC_DESIGN_PERSON_AND_ORGANIZATION_ASSIGNMENT ( #164, #228, ( #49 ) ) ;
#49 = PRODUCT_DEFINITION_FORMATION_WITH_SPECIFIED_SOURCE ( 'ANY', '', #199, .NOT_KNOWN. ) ;
#50 = EDGE_CURVE ( 'NONE', #292, #278, #196, .T. ) ;
#51 = CC_DESIGN_PERSON_AND_ORGANIZATION_ASSIGNMENT ( #165, #229, ( #49 ) ) ;
#52 = EDGE_CURVE ( 'NONE', #288, #285, #198, .T. ) ;
#53 = AXIS2_PLACEMENT_3D ( 'NONE', #27, #22, #99 ) ;
#54 = EDGE_CURVE ( 'NONE', #285, #259, #244, .T. ) ;
#55 = AXIS2_PLACEMENT_3D ( 'NONE', #6, #21, #15 ) ;
#56 = AXIS2_PLACEMENT_3D ( 'NONE', #3, #36, #11 ) ;
#57 = EDGE_CURVE ( 'NONE', #263, #292, #246, .T. ) ;
#58 = EDGE_CURVE ( 'NONE', #270, #271, #248, .T. ) ;
#59 = EDGE_CURVE ( 'NONE', #278, #271, #250, .T. ) ;
#60 = PRODUCT_DEFINITION ( 'UNKNOWN', '', #49, #337 ) ;
#61 = CC_DESIGN_DATE_AND_TIME_ASSIGNMENT ( #156, #217, ( #60 ) ) ;
#62 = EDGE_CURVE ( 'NONE', #285, #284, #252, .T. ) ;
#63 = CC_DESIGN_PERSON_AND_ORGANIZATION_ASSIGNMENT ( #332, #221, ( #199 ) ) ;
#64 = AXIS2_PLACEMENT_3D ( 'NONE', #113, #103, #225 ) ;
#65 = AXIS2_PLACEMENT_3D ( 'NONE', #122, #120, #123 ) ;
#66 = AXIS2_PLACEMENT_3D ( 'NONE', #102, #104, #110 ) ;
#67 = APPROVAL ( #235, 'UNSPECIFIED' ) ;
#68 = EDGE_CURVE ( 'NONE', #259, #306, #356, .T. ) ;
#69 = EDGE_CURVE ( 'NONE', #273, #268, #358, .T. ) ;
#70 = EDGE_CURVE ( 'NONE', #260, #278, #360, .T. ) ;
#71 = EDGE_CURVE ( 'NONE', #284, #263, #362, .T. ) ;
#72 = EDGE_CURVE ( 'NONE', #288, #298, #364, .T. ) ;
#73 = EDGE_CURVE ( 'NONE', #282, #288, #170, .T. ) ;
#74 = EDGE_CURVE ( 'NONE', #306, #260, #172, .T. ) ;
#75 = EDGE_CURVE ( 'NONE', #273, #282, #174, .T. ) ;
#76 = EDGE_CURVE ( 'NONE', #282, #291, #176, .T. ) ;
#77 = EDGE_CURVE ( 'NONE', #284, #306, #178, .T. ) ;
#78 = EDGE_CURVE ( 'NONE', #292, #270, #180, .T. ) ;
#79 = EDGE_CURVE ( 'NONE', #271, #268, #182, .T. ) ;
#80 = EDGE_CURVE ( 'NONE', #270, #273, #184, .T. ) ;
#81 = EDGE_CURVE ( 'NONE', #298, #259, #186, .T. ) ;
#82 = APPROVAL ( #219, 'UNSPECIFIED' ) ;
#83 = AXIS2_PLACEMENT_3D ( 'NONE', #125, #107, #105 ) ;
#84 = EDGE_CURVE ( 'NONE', #291, #298, #188, .T. ) ;
#85 = AXIS2_PLACEMENT_3D ( 'NONE', #121, #114, #108 ) ;
#86 = APPROVAL ( #231, 'UNSPECIFIED' ) ;
#87 = CC_DESIGN_APPROVAL ( #86, ( #60 ) ) ;
#88 = CC_DESIGN_PERSON_AND_ORGANIZATION_ASSIGNMENT ( #152, #223, ( #60 ) ) ;
#89 = ORIENTED_EDGE ( 'NONE', *, *, #70, .T. ) ;
#90 = ORIENTED_EDGE ( 'NONE', *, *, #58, .F. ) ;
#91 = ORIENTED_EDGE ( 'NONE', *, *, #57, .F. ) ;
#92 = ORIENTED_EDGE ( 'NONE', *, *, #78, .F. ) ;
#93 = ORIENTED_EDGE ( 'NONE', *, *, #59, .T. ) ;
#94 = CLOSED_SHELL ( 'NONE', ( #141, #140, #147, #139, #142, #143, #144, #145, #138, #146 ) ) ;
#95 = ORIENTED_EDGE ( 'NONE', *, *, #68, .T. ) ;
#96 = ORIENTED_EDGE ( 'NONE', *, *, #43, .F. ) ;
#97 = ORIENTED_EDGE ( 'NONE', *, *, #77, .F. ) ;
#98 = ORIENTED_EDGE ( 'NONE', *, *, #62, .F. ) ;
#99 = DIRECTION ( 'NONE',  ( 0.2588190451025181900, -0.9659258262890689800, 0.0000000000000000000 ) ) ;
#100 = CARTESIAN_POINT ( 'NONE',  ( 8.000000000000000000, -2.195599280053263200E-015, 0.0000000000000000000 ) ) ;
#101 = PLANE ( 'NONE',  #66 ) ;
#102 = CARTESIAN_POINT ( 'NONE',  ( 8.000000000000000000, -1.734723475976807100E-015, 0.0000000000000000000 ) ) ;
#103 = DIRECTION ( 'NONE',  ( 0.0000000000000000000, 0.0000000000000000000, 1.000000000000000000 ) ) ;
#104 = DIRECTION ( 'NONE',  ( 0.0000000000000000000, 0.0000000000000000000, 1.000000000000000000 ) ) ;
#105 = DIRECTION ( 'NONE',  ( -0.2588190451025179100, 0.9659258262890690900, 0.0000000000000000000 ) ) ;
#106 = CARTESIAN_POINT ( 'NONE',  ( 7.309405710818933400, 0.8999999999999998000, 50.00000000000000000 ) ) ;
#107 = DIRECTION ( 'NONE',  ( 0.9659258262890690900, 0.2588190451025179100, -0.0000000000000000000 ) ) ;
#108 = DIRECTION ( 'NONE',  ( 0.0000000000000000000, -0.0000000000000000000, -1.000000000000000000 ) ) ;
#109 = CARTESIAN_POINT ( 'NONE',  ( -1.741669750802277600, 6.500000000000001800, 50.00000000000000000 ) ) ;
#110 = DIRECTION ( 'NONE',  ( 1.000000000000000000, 0.0000000000000000000, -0.0000000000000000000 ) ) ;
#111 = CARTESIAN_POINT ( 'NONE',  ( -0.8099211884332039300, 6.500000000000001800, 50.00000000000000000 ) ) ;
#112 = CARTESIAN_POINT ( 'NONE',  ( 0.6905942891810676900, 0.9000000000000000200, 50.00000000000000000 ) ) ;
#113 = CARTESIAN_POINT ( 'NONE',  ( 0.0000000000000000000, 0.0000000000000000000, 0.0000000000000000000 ) ) ;
#114 = DIRECTION ( 'NONE',  ( 0.0000000000000000000, -1.000000000000000000, 0.0000000000000000000 ) ) ;
#115 = CARTESIAN_POINT ( 'NONE',  ( 7.309405710818933400, 0.8999999999999998000, 0.0000000000000000000 ) ) ;
#116 = CARTESIAN_POINT ( 'NONE',  ( 8.000000000000000000, -2.195599280053263200E-015, 50.00000000000000000 ) ) ;
#117 = PLANE ( 'NONE',  #65 ) ;
#118 = CARTESIAN_POINT ( 'NONE',  ( 0.6905942891810676900, 0.9000000000000000200, 0.0000000000000000000 ) ) ;
#119 =( NAMED_UNIT ( * ) PLANE_ANGLE_UNIT ( ) SI_UNIT ( $, .RADIAN. ) );
#120 = DIRECTION ( 'NONE',  ( -1.861793563239946800E-015, -1.000000000000000000, 0.0000000000000000000 ) ) ;
#121 = CARTESIAN_POINT ( 'NONE',  ( -1.741669750802277600, 6.500000000000001800, 50.00000000000000000 ) ) ;
#122 = CARTESIAN_POINT ( 'NONE',  ( 8.809921188433202500, 6.500000000000002700, 50.00000000000000000 ) ) ;
#123 = DIRECTION ( 'NONE',  ( 1.000000000000000000, -1.861793563239946800E-015, 0.0000000000000000000 ) ) ;
#124 = PLANE ( 'NONE',  #85 ) ;
#125 = CARTESIAN_POINT ( 'NONE',  ( 0.0000000000000000000, 0.0000000000000000000, 50.00000000000000000 ) ) ;
#126 = CARTESIAN_POINT ( 'NONE',  ( -0.8099211884332039300, 6.500000000000001800, 0.0000000000000000000 ) ) ;
#127 = CARTESIAN_POINT ( 'NONE',  ( 0.0000000000000000000, 0.0000000000000000000, 0.0000000000000000000 ) ) ;
#128 = CARTESIAN_POINT ( 'NONE',  ( 0.0000000000000000000, 0.0000000000000000000, 50.00000000000000000 ) ) ;
#129 =( NAMED_UNIT ( * ) SI_UNIT ( $, .STERADIAN. ) SOLID_ANGLE_UNIT ( ) );
#130 = PLANE ( 'NONE',  #83 ) ;
#131 = CARTESIAN_POINT ( 'NONE',  ( 8.809921188433202500, 6.500000000000002700, 0.0000000000000000000 ) ) ;
#132 = CARTESIAN_POINT ( 'NONE',  ( 9.741669750802271800, 6.500000000000000900, 50.00000000000000000 ) ) ;
#133 = CARTESIAN_POINT ( 'NONE',  ( 9.741669750802271800, 6.500000000000000900, 0.0000000000000000000 ) ) ;
#134 = CARTESIAN_POINT ( 'NONE',  ( -1.741669750802277600, 6.500000000000001800, 0.0000000000000000000 ) ) ;
#135 = CARTESIAN_POINT ( 'NONE',  ( 8.809921188433202500, 6.500000000000002700, 50.00000000000000000 ) ) ;
#136 =( LENGTH_UNIT ( ) NAMED_UNIT ( * ) SI_UNIT ( .MILLI., .METRE. ) );
#137 = MANIFOLD_SOLID_BREP ( 'NONE', #94 ) ;
#138 = ADVANCED_FACE ( 'NONE', ( #318 ), #19, .T. ) ;
#139 = ADVANCED_FACE ( 'NONE', ( #319 ), #16, .F. ) ;
#140 = ADVANCED_FACE ( 'NONE', ( #320 ), #12, .F. ) ;
#141 = ADVANCED_FACE ( 'NONE', ( #321 ), #30, .F. ) ;
#142 = ADVANCED_FACE ( 'NONE', ( #322 ), #20, .F. ) ;
#143 = ADVANCED_FACE ( 'NONE', ( #323 ), #28, .F. ) ;
#144 = ADVANCED_FACE ( 'NONE', ( #324 ), #124, .F. ) ;
#145 = ADVANCED_FACE ( 'NONE', ( #325 ), #130, .F. ) ;
#146 = ADVANCED_FACE ( 'NONE', ( #326 ), #101, .F. ) ;
#147 = ADVANCED_FACE ( 'NONE', ( #327 ), #117, .F. ) ;
#148 = ADVANCED_BREP_SHAPE_REPRESENTATION ( 'B39-50', ( #137, #64 ), #329 ) ;
#149 = CALENDAR_DATE ( 2018, 28, 3 ) ;
#150 = DATE_AND_TIME ( #149, #336 ) ;
#151 = APPROVAL_DATE_TIME ( #150, #86 ) ;
#152 = PERSON_AND_ORGANIZATION ( #200, #331 ) ;
#153 = COORDINATED_UNIVERSAL_TIME_OFFSET ( 3, 0, .BEHIND. ) ;
#154 = LOCAL_TIME ( 11, 59, 0.0000000000000000000, #153 ) ;
#155 = CALENDAR_DATE ( 2018, 28, 3 ) ;
#156 = DATE_AND_TIME ( #155, #154 ) ;
#157 = PERSON_AND_ORGANIZATION ( #200, #331 ) ;
#158 = APPROVAL_PERSON_ORGANIZATION ( #157, #82, #220 ) ;
#159 = COORDINATED_UNIVERSAL_TIME_OFFSET ( 3, 0, .BEHIND. ) ;
#160 = LOCAL_TIME ( 11, 59, 0.0000000000000000000, #159 ) ;
#161 = CALENDAR_DATE ( 2018, 28, 3 ) ;
#162 = DATE_AND_TIME ( #161, #160 ) ;
#163 = APPROVAL_DATE_TIME ( #162, #82 ) ;
#164 = PERSON_AND_ORGANIZATION ( #200, #331 ) ;
#165 = PERSON_AND_ORGANIZATION ( #200, #331 ) ;
#166 = SECURITY_CLASSIFICATION ( '', '', #230 ) ;
#167 = PERSON_AND_ORGANIZATION ( #200, #331 ) ;
#168 = COORDINATED_UNIVERSAL_TIME_OFFSET ( 3, 0, .BEHIND. ) ;
#169 = VECTOR ( 'NONE', #274, 1000.000000000000000 ) ;
#170 = LINE ( 'NONE', #255, #171 ) ;
#171 = VECTOR ( 'NONE', #257, 1000.000000000000000 ) ;
#172 = LINE ( 'NONE', #289, #173 ) ;
#173 = VECTOR ( 'NONE', #280, 1000.000000000000100 ) ;
#174 = LINE ( 'NONE', #297, #175 ) ;
#175 = VECTOR ( 'NONE', #290, 1000.000000000000100 ) ;
#176 = LINE ( 'NONE', #264, #177 ) ;
#177 = VECTOR ( 'NONE', #266, 1000.000000000000000 ) ;
#178 = LINE ( 'NONE', #5, #179 ) ;
#179 = VECTOR ( 'NONE', #34, 1000.000000000000000 ) ;
#180 = LINE ( 'NONE', #4, #181 ) ;
#181 = VECTOR ( 'NONE', #17, 1000.000000000000100 ) ;
#182 = LINE ( 'NONE', #29, #183 ) ;
#183 = VECTOR ( 'NONE', #33, 1000.000000000000000 ) ;
#184 = LINE ( 'NONE', #18, #185 ) ;
#185 = VECTOR ( 'NONE', #24, 1000.000000000000000 ) ;
#186 = LINE ( 'NONE', #32, #187 ) ;
#187 = VECTOR ( 'NONE', #35, 999.9999999999998900 ) ;
#188 = LINE ( 'NONE', #8, #317 ) ;
#189 = ORIENTED_EDGE ( 'NONE', *, *, #71, .F. ) ;
#190 = ORIENTED_EDGE ( 'NONE', *, *, #54, .T. ) ;
#191 = ORIENTED_EDGE ( 'NONE', *, *, #74, .T. ) ;
#192 = LINE ( 'NONE', #294, #193 ) ;
#193 = VECTOR ( 'NONE', #296, 1000.000000000000100 ) ;
#194 = LINE ( 'NONE', #287, #195 ) ;
#195 = VECTOR ( 'NONE', #295, 1000.000000000000000 ) ;
#196 = LINE ( 'NONE', #305, #197 ) ;
#197 = VECTOR ( 'NONE', #304, 1000.000000000000000 ) ;
#198 = LINE ( 'NONE', #302, #243 ) ;
#199 = PRODUCT ( 'B39-50', 'B39-50', '', ( #218 ) ) ;
#200 = PERSON ( 'UNSPECIFIED', 'UNSPECIFIED', 'UNSPECIFIED', ('UNSPECIFIED'), ('UNSPECIFIED'), ('UNSPECIFIED') ) ;
#201 = EDGE_LOOP ( 'NONE', ( #191, #96, #189, #215 ) ) ;
#202 = EDGE_LOOP ( 'NONE', ( #348, #349, #347, #352 ) ) ;
#203 = EDGE_LOOP ( 'NONE', ( #95, #97, #98, #190 ) ) ;
#204 = EDGE_LOOP ( 'NONE', ( #89, #210, #91, #209 ) ) ;
#205 = EDGE_LOOP ( 'NONE', ( #365, #214, #351, #353 ) ) ;
#206 = EDGE_LOOP ( 'NONE', ( #240, #242, #237, #239, #354, #350, #368, #366 ) ) ;
#207 = EDGE_LOOP ( 'NONE', ( #339, #342, #341, #343, #340, #344, #241, #238 ) ) ;
#208 = EDGE_LOOP ( 'NONE', ( #93, #90, #92, #212 ) ) ;
#209 = ORIENTED_EDGE ( 'NONE', *, *, #43, .T. ) ;
#210 = ORIENTED_EDGE ( 'NONE', *, *, #50, .F. ) ;
#211 = ORIENTED_EDGE ( 'NONE', *, *, #80, .F. ) ;
#212 = ORIENTED_EDGE ( 'NONE', *, *, #50, .T. ) ;
#213 = ORIENTED_EDGE ( 'NONE', *, *, #69, .F. ) ;
#214 = ORIENTED_EDGE ( 'NONE', *, *, #76, .F. ) ;
#215 = ORIENTED_EDGE ( 'NONE', *, *, #77, .T. ) ;
#216 = ORIENTED_EDGE ( 'NONE', *, *, #79, .T. ) ;
#217 = DATE_TIME_ROLE ( 'creation_date' ) ;
#218 = MECHANICAL_CONTEXT ( 'NONE', #222, 'mechanical' ) ;
#219 = APPROVAL_STATUS ( 'not_yet_approved' ) ;
#220 = APPROVAL_ROLE ( '' ) ;
#221 = PERSON_AND_ORGANIZATION_ROLE ( 'design_owner' ) ;
#222 = APPLICATION_CONTEXT ( 'configuration controlled 3d designs of mechanical parts and assemblies' ) ;
#223 = PERSON_AND_ORGANIZATION_ROLE ( 'creator' ) ;
#224 = APPROVAL_ROLE ( '' ) ;
#225 = DIRECTION ( 'NONE',  ( 1.000000000000000000, 0.0000000000000000000, 0.0000000000000000000 ) ) ;
#226 = APPLICATION_CONTEXT ( 'configuration controlled 3d designs of mechanical parts and assemblies' ) ;
#227 = APPROVAL_ROLE ( '' ) ;
#228 = PERSON_AND_ORGANIZATION_ROLE ( 'creator' ) ;
#229 = PERSON_AND_ORGANIZATION_ROLE ( 'design_supplier' ) ;
#230 = SECURITY_CLASSIFICATION_LEVEL ( 'unclassified' ) ;
#231 = APPROVAL_STATUS ( 'not_yet_approved' ) ;
#232 = APPLICATION_PROTOCOL_DEFINITION ( 'international standard', 'config_control_design', 1994, #222 ) ;
#233 = PERSON_AND_ORGANIZATION_ROLE ( 'classification_officer' ) ;
#234 = DATE_TIME_ROLE ( 'classification_date' ) ;
#235 = APPROVAL_STATUS ( 'not_yet_approved' ) ;
#236 = APPLICATION_PROTOCOL_DEFINITION ( 'international standard', 'config_control_design', 1994, #226 ) ;
#237 = ORIENTED_EDGE ( 'NONE', *, *, #68, .F. ) ;
#238 = ORIENTED_EDGE ( 'NONE', *, *, #71, .T. ) ;
#239 = ORIENTED_EDGE ( 'NONE', *, *, #81, .F. ) ;
#240 = ORIENTED_EDGE ( 'NONE', *, *, #70, .F. ) ;
#241 = ORIENTED_EDGE ( 'NONE', *, *, #62, .T. ) ;
#242 = ORIENTED_EDGE ( 'NONE', *, *, #74, .F. ) ;
#243 = VECTOR ( 'NONE', #301, 999.9999999999998900 ) ;
#244 = LINE ( 'NONE', #281, #245 ) ;
#245 = VECTOR ( 'NONE', #277, 1000.000000000000000 ) ;
#246 = LINE ( 'NONE', #279, #247 ) ;
#247 = VECTOR ( 'NONE', #262, 1000.000000000000000 ) ;
#248 = LINE ( 'NONE', #267, #249 ) ;
#249 = VECTOR ( 'NONE', #275, 1000.000000000000000 ) ;
#250 = LINE ( 'NONE', #269, #251 ) ;
#251 = VECTOR ( 'NONE', #300, 1000.000000000000100 ) ;
#252 = LINE ( 'NONE', #283, #355 ) ;
#253 = ORIENTED_EDGE ( 'NONE', *, *, #81, .T. ) ;
#254 = ORIENTED_EDGE ( 'NONE', *, *, #72, .T. ) ;
#255 = CARTESIAN_POINT ( 'NONE',  ( 0.6905942891810676900, 0.9000000000000000200, 50.00000000000000000 ) ) ;
#256 = CARTESIAN_POINT ( 'NONE',  ( 8.809921188433202500, 6.500000000000002700, 50.00000000000000000 ) ) ;
#257 = DIRECTION ( 'NONE',  ( -1.000000000000000000, 3.276123471175167400E-017, -0.0000000000000000000 ) ) ;
#258 = CARTESIAN_POINT ( 'NONE',  ( 8.000000000000000000, -2.195599280053263200E-015, 0.0000000000000000000 ) ) ;
#259 = VERTEX_POINT ( 'NONE', #126 ) ;
#260 = VERTEX_POINT ( 'NONE', #127 ) ;
#261 = DIRECTION ( 'NONE',  ( 1.000000000000000000, -2.744499100066579100E-016, -0.0000000000000000000 ) ) ;
#262 = DIRECTION ( 'NONE',  ( 1.000000000000000000, -2.744499100066579100E-016, -0.0000000000000000000 ) ) ;
#263 = VERTEX_POINT ( 'NONE', #128 ) ;
#264 = CARTESIAN_POINT ( 'NONE',  ( 7.309405710818933400, 0.8999999999999998000, 50.00000000000000000 ) ) ;
#265 = DIRECTION ( 'NONE',  ( -1.000000000000000000, -0.0000000000000000000, -0.0000000000000000000 ) ) ;
#266 = DIRECTION ( 'NONE',  ( -0.0000000000000000000, -0.0000000000000000000, -1.000000000000000000 ) ) ;
#267 = CARTESIAN_POINT ( 'NONE',  ( 9.741669750802271800, 6.500000000000000900, 50.00000000000000000 ) ) ;
#268 = VERTEX_POINT ( 'NONE', #131 ) ;
#269 = CARTESIAN_POINT ( 'NONE',  ( 9.741669750802271800, 6.500000000000000900, 0.0000000000000000000 ) ) ;
#270 = VERTEX_POINT ( 'NONE', #132 ) ;
#271 = VERTEX_POINT ( 'NONE', #133 ) ;
#272 = DIRECTION ( 'NONE',  ( -0.0000000000000000000, -0.0000000000000000000, -1.000000000000000000 ) ) ;
#273 = VERTEX_POINT ( 'NONE', #135 ) ;
#274 = DIRECTION ( 'NONE',  ( -0.0000000000000000000, -0.0000000000000000000, -1.000000000000000000 ) ) ;
#275 = DIRECTION ( 'NONE',  ( -0.0000000000000000000, -0.0000000000000000000, -1.000000000000000000 ) ) ;
#276 = DIRECTION ( 'NONE',  ( 0.2588190451025179600, -0.9659258262890690900, -0.0000000000000000000 ) ) ;
#277 = DIRECTION ( 'NONE',  ( -0.0000000000000000000, -0.0000000000000000000, -1.000000000000000000 ) ) ;
#278 = VERTEX_POINT ( 'NONE', #100 ) ;
#279 = CARTESIAN_POINT ( 'NONE',  ( 8.000000000000000000, -2.195599280053263200E-015, 50.00000000000000000 ) ) ;
#280 = DIRECTION ( 'NONE',  ( 0.2588190451025179600, -0.9659258262890690900, -0.0000000000000000000 ) ) ;
#281 = CARTESIAN_POINT ( 'NONE',  ( -0.8099211884332039300, 6.500000000000001800, 50.00000000000000000 ) ) ;
#282 = VERTEX_POINT ( 'NONE', #106 ) ;
#283 = CARTESIAN_POINT ( 'NONE',  ( -1.741669750802277600, 6.500000000000001800, 50.00000000000000000 ) ) ;
#284 = VERTEX_POINT ( 'NONE', #109 ) ;
#285 = VERTEX_POINT ( 'NONE', #111 ) ;
#286 = DIRECTION ( 'NONE',  ( -1.000000000000000000, -0.0000000000000000000, -0.0000000000000000000 ) ) ;
#287 = CARTESIAN_POINT ( 'NONE',  ( 0.0000000000000000000, 0.0000000000000000000, 50.00000000000000000 ) ) ;
#288 = VERTEX_POINT ( 'NONE', #112 ) ;
#289 = CARTESIAN_POINT ( 'NONE',  ( 0.0000000000000000000, 0.0000000000000000000, 0.0000000000000000000 ) ) ;
#290 = DIRECTION ( 'NONE',  ( -0.2588190451025178000, -0.9659258262890690900, -0.0000000000000000000 ) ) ;
#291 = VERTEX_POINT ( 'NONE', #115 ) ;
#292 = VERTEX_POINT ( 'NONE', #116 ) ;
#293 = CARTESIAN_POINT ( 'NONE',  ( 0.0000000000000000000, 0.0000000000000000000, 50.00000000000000000 ) ) ;
#294 = CARTESIAN_POINT ( 'NONE',  ( 7.309405710818933400, 0.8999999999999998000, 0.0000000000000000000 ) ) ;
#295 = DIRECTION ( 'NONE',  ( -0.0000000000000000000, -0.0000000000000000000, -1.000000000000000000 ) ) ;
#296 = DIRECTION ( 'NONE',  ( -0.2588190451025178000, -0.9659258262890690900, -0.0000000000000000000 ) ) ;
#297 = CARTESIAN_POINT ( 'NONE',  ( 7.309405710818933400, 0.8999999999999998000, 50.00000000000000000 ) ) ;
#298 = VERTEX_POINT ( 'NONE', #118 ) ;
#299 = CARTESIAN_POINT ( 'NONE',  ( 0.6905942891810676900, 0.9000000000000000200, 50.00000000000000000 ) ) ;
#300 = DIRECTION ( 'NONE',  ( 0.2588190451025171300, 0.9659258262890693100, -0.0000000000000000000 ) ) ;
#301 = DIRECTION ( 'NONE',  ( -0.2588190451025182400, 0.9659258262890690900, -0.0000000000000000000 ) ) ;
#302 = CARTESIAN_POINT ( 'NONE',  ( -0.8099211884332039300, 6.500000000000001800, 50.00000000000000000 ) ) ;
#303 = CARTESIAN_POINT ( 'NONE',  ( -1.741669750802277600, 6.500000000000001800, 0.0000000000000000000 ) ) ;
#304 = DIRECTION ( 'NONE',  ( -0.0000000000000000000, -0.0000000000000000000, -1.000000000000000000 ) ) ;
#305 = CARTESIAN_POINT ( 'NONE',  ( 8.000000000000000000, -2.195599280053263200E-015, 50.00000000000000000 ) ) ;
#306 = VERTEX_POINT ( 'NONE', #134 ) ;
#307 = LOCAL_TIME ( 11, 59, 0.0000000000000000000, #168 ) ;
#308 = CALENDAR_DATE ( 2018, 28, 3 ) ;
#309 = DATE_AND_TIME ( #308, #307 ) ;
#310 = PERSON_AND_ORGANIZATION ( #200, #331 ) ;
#311 = APPROVAL_PERSON_ORGANIZATION ( #310, #67, #227 ) ;
#312 = COORDINATED_UNIVERSAL_TIME_OFFSET ( 3, 0, .BEHIND. ) ;
#313 = LOCAL_TIME ( 11, 59, 0.0000000000000000000, #312 ) ;
#314 = CALENDAR_DATE ( 2018, 28, 3 ) ;
#315 = DATE_AND_TIME ( #314, #313 ) ;
#316 = APPROVAL_DATE_TIME ( #315, #67 ) ;
#317 = VECTOR ( 'NONE', #31, 1000.000000000000000 ) ;
#318 = FACE_OUTER_BOUND ( 'NONE', #207, .T. ) ;
#319 = FACE_OUTER_BOUND ( 'NONE', #205, .T. ) ;
#320 = FACE_OUTER_BOUND ( 'NONE', #208, .T. ) ;
#321 = FACE_OUTER_BOUND ( 'NONE', #204, .T. ) ;
#322 = FACE_OUTER_BOUND ( 'NONE', #202, .T. ) ;
#323 = FACE_OUTER_BOUND ( 'NONE', #1, .T. ) ;
#324 = FACE_OUTER_BOUND ( 'NONE', #203, .T. ) ;
#325 = FACE_OUTER_BOUND ( 'NONE', #201, .T. ) ;
#326 = FACE_OUTER_BOUND ( 'NONE', #206, .T. ) ;
#327 = FACE_OUTER_BOUND ( 'NONE', #369, .T. ) ;
#328 = UNCERTAINTY_MEASURE_WITH_UNIT (LENGTH_MEASURE( 1.000000000000000100E-005 ), #136, 'distance_accuracy_value', 'NONE');
#329 =( GEOMETRIC_REPRESENTATION_CONTEXT ( 3 ) GLOBAL_UNCERTAINTY_ASSIGNED_CONTEXT ( ( #328 ) ) GLOBAL_UNIT_ASSIGNED_CONTEXT ( ( #136, #119, #129 ) ) REPRESENTATION_CONTEXT ( 'NONE', 'WORKASPACE' ) );
#330 = SHAPE_DEFINITION_REPRESENTATION ( #338, #148 ) ;
#331 = ORGANIZATION ( 'UNSPECIFIED', 'UNSPECIFIED', '' ) ;
#332 = PERSON_AND_ORGANIZATION ( #200, #331 ) ;
#333 = PERSON_AND_ORGANIZATION ( #200, #331 ) ;
#334 = APPROVAL_PERSON_ORGANIZATION ( #333, #86, #224 ) ;
#335 = COORDINATED_UNIVERSAL_TIME_OFFSET ( 3, 0, .BEHIND. ) ;
#336 = LOCAL_TIME ( 11, 59, 0.0000000000000000000, #335 ) ;
#337 = DESIGN_CONTEXT ( 'detailed design', #226, 'design' ) ;
#338 = PRODUCT_DEFINITION_SHAPE ( 'NONE', 'NONE',  #60 ) ;
#339 = ORIENTED_EDGE ( 'NONE', *, *, #57, .T. ) ;
#340 = ORIENTED_EDGE ( 'NONE', *, *, #73, .T. ) ;
#341 = ORIENTED_EDGE ( 'NONE', *, *, #80, .T. ) ;
#342 = ORIENTED_EDGE ( 'NONE', *, *, #78, .T. ) ;
#343 = ORIENTED_EDGE ( 'NONE', *, *, #75, .T. ) ;
#344 = ORIENTED_EDGE ( 'NONE', *, *, #52, .T. ) ;
#345 = ORIENTED_EDGE ( 'NONE', *, *, #52, .F. ) ;
#346 = ORIENTED_EDGE ( 'NONE', *, *, #54, .F. ) ;
#347 = ORIENTED_EDGE ( 'NONE', *, *, #73, .F. ) ;
#348 = ORIENTED_EDGE ( 'NONE', *, *, #84, .T. ) ;
#349 = ORIENTED_EDGE ( 'NONE', *, *, #72, .F. ) ;
#350 = ORIENTED_EDGE ( 'NONE', *, *, #42, .F. ) ;
#351 = ORIENTED_EDGE ( 'NONE', *, *, #75, .F. ) ;
#352 = ORIENTED_EDGE ( 'NONE', *, *, #76, .T. ) ;
#353 = ORIENTED_EDGE ( 'NONE', *, *, #69, .T. ) ;
#354 = ORIENTED_EDGE ( 'NONE', *, *, #84, .F. ) ;
#355 = VECTOR ( 'NONE', #286, 1000.000000000000000 ) ;
#356 = LINE ( 'NONE', #303, #357 ) ;
#357 = VECTOR ( 'NONE', #265, 1000.000000000000000 ) ;
#358 = LINE ( 'NONE', #256, #359 ) ;
#359 = VECTOR ( 'NONE', #272, 1000.000000000000000 ) ;
#360 = LINE ( 'NONE', #258, #361 ) ;
#361 = VECTOR ( 'NONE', #261, 1000.000000000000000 ) ;
#362 = LINE ( 'NONE', #293, #363 ) ;
#363 = VECTOR ( 'NONE', #276, 1000.000000000000100 ) ;
#364 = LINE ( 'NONE', #299, #169 ) ;
#365 = ORIENTED_EDGE ( 'NONE', *, *, #42, .T. ) ;
#366 = ORIENTED_EDGE ( 'NONE', *, *, #59, .F. ) ;
#367 = ORIENTED_EDGE ( 'NONE', *, *, #58, .T. ) ;
#368 = ORIENTED_EDGE ( 'NONE', *, *, #79, .F. ) ;
#369 = EDGE_LOOP ( 'NONE', ( #216, #213, #211, #367 ) ) ;
ENDSEC;
END-ISO-10303-21;
