ISO-10303-21;
HEADER;
FILE_DESCRIPTION (( 'STEP AP203' ),
    '1' );
FILE_NAME ('C39-50.STEP',
    '2018-03-28T14:54:42',
    ( 'User2' ),
    ( '' ),
    'SwSTEP 2.0',
    'SolidWorks 2007',
    '' );
FILE_SCHEMA (( 'CONFIG_CONTROL_DESIGN' ));
ENDSEC;

DATA;
#1 = ORIENTED_EDGE ( 'NONE', *, *, #63, .F. ) ;
#2 = ORIENTED_EDGE ( 'NONE', *, *, #52, .T. ) ;
#3 = ORIENTED_EDGE ( 'NONE', *, *, #61, .T. ) ;
#4 = ORIENTED_EDGE ( 'NONE', *, *, #71, .F. ) ;
#5 = ORIENTED_EDGE ( 'NONE', *, *, #43, .F. ) ;
#6 = ORIENTED_EDGE ( 'NONE', *, *, #62, .T. ) ;
#7 = ORIENTED_EDGE ( 'NONE', *, *, #50, .T. ) ;
#8 = ORIENTED_EDGE ( 'NONE', *, *, #59, .F. ) ;
#9 = ORIENTED_EDGE ( 'NONE', *, *, #54, .F. ) ;
#10 = ORIENTED_EDGE ( 'NONE', *, *, #71, .T. ) ;
#11 = CARTESIAN_POINT ( 'NONE',  ( 10.67949192431118500, 10.00000000000000200, 0.0000000000000000000 ) ) ;
#12 = VERTEX_POINT ( 'NONE', #11 ) ;
#13 = CARTESIAN_POINT ( 'NONE',  ( 8.000000000000000000, -2.195599280053263200E-015, 50.00000000000000000 ) ) ;
#14 = VERTEX_POINT ( 'NONE', #27 ) ;
#15 = VERTEX_POINT ( 'NONE', #30 ) ;
#16 = VERTEX_POINT ( 'NONE', #28 ) ;
#17 = VERTEX_POINT ( 'NONE', #18 ) ;
#18 = CARTESIAN_POINT ( 'NONE',  ( -2.679491924311198800, 10.00000000000000200, 50.00000000000000000 ) ) ;
#19 = VERTEX_POINT ( 'NONE', #29 ) ;
#20 = CARTESIAN_POINT ( 'NONE',  ( 0.0000000000000000000, 0.0000000000000000000, 50.00000000000000000 ) ) ;
#21 = VERTEX_POINT ( 'NONE', #13 ) ;
#22 = VERTEX_POINT ( 'NONE', #20 ) ;
#23 = VERTEX_POINT ( 'NONE', #157 ) ;
#24 = VERTEX_POINT ( 'NONE', #169 ) ;
#25 = VERTEX_POINT ( 'NONE', #175 ) ;
#26 = VERTEX_POINT ( 'NONE', #173 ) ;
#27 = CARTESIAN_POINT ( 'NONE',  ( 8.000000000000000000, -2.195599280053263200E-015, 0.0000000000000000000 ) ) ;
#28 = CARTESIAN_POINT ( 'NONE',  ( 0.6905942891810676900, 0.9000000000000000200, 50.00000000000000000 ) ) ;
#29 = CARTESIAN_POINT ( 'NONE',  ( 9.747743361942109900, 10.00000000000000200, 50.00000000000000000 ) ) ;
#30 = CARTESIAN_POINT ( 'NONE',  ( 10.67949192431118500, 10.00000000000000200, 50.00000000000000000 ) ) ;
#31 = VERTEX_POINT ( 'NONE', #158 ) ;
#32 = VERTEX_POINT ( 'NONE', #156 ) ;
#33 = VERTEX_POINT ( 'NONE', #150 ) ;
#34 = VERTEX_POINT ( 'NONE', #164 ) ;
#35 = CC_DESIGN_PERSON_AND_ORGANIZATION_ASSIGNMENT ( #283, #191, ( #45 ) ) ;
#36 = CC_DESIGN_APPROVAL ( #41, ( #45 ) ) ;
#37 = EDGE_CURVE ( 'NONE', #33, #26, #340, .T. ) ;
#38 = AXIS2_PLACEMENT_3D ( 'NONE', #121, #98, #115 ) ;
#39 = EDGE_CURVE ( 'NONE', #26, #25, #342, .T. ) ;
#40 = EDGE_CURVE ( 'NONE', #19, #33, #344, .T. ) ;
#41 = APPROVAL ( #194, 'UNSPECIFIED' ) ;
#42 = EDGE_CURVE ( 'NONE', #15, #19, #346, .T. ) ;
#43 = EDGE_CURVE ( 'NONE', #16, #23, #348, .T. ) ;
#44 = AXIS2_PLACEMENT_3D ( 'NONE', #247, #246, #235 ) ;
#45 = PRODUCT_DEFINITION_FORMATION_WITH_SPECIFIED_SOURCE ( 'ANY', '', #350, .NOT_KNOWN. ) ;
#46 = AXIS2_PLACEMENT_3D ( 'NONE', #97, #93, #181 ) ;
#47 = EDGE_CURVE ( 'NONE', #19, #32, #128, .T. ) ;
#48 = AXIS2_PLACEMENT_3D ( 'NONE', #258, #242, #241 ) ;
#49 = EDGE_CURVE ( 'NONE', #24, #14, #130, .T. ) ;
#50 = EDGE_CURVE ( 'NONE', #31, #34, #132, .T. ) ;
#51 = CC_DESIGN_PERSON_AND_ORGANIZATION_ASSIGNMENT ( #300, #188, ( #350 ) ) ;
#52 = EDGE_CURVE ( 'NONE', #32, #26, #134, .T. ) ;
#53 = AXIS2_PLACEMENT_3D ( 'NONE', #125, #107, #116 ) ;
#54 = EDGE_CURVE ( 'NONE', #23, #17, #136, .T. ) ;
#55 = AXIS2_PLACEMENT_3D ( 'NONE', #101, #109, #113 ) ;
#56 = EDGE_CURVE ( 'NONE', #17, #22, #138, .T. ) ;
#57 = EDGE_CURVE ( 'NONE', #21, #14, #140, .T. ) ;
#58 = EDGE_CURVE ( 'NONE', #21, #15, #142, .T. ) ;
#59 = EDGE_CURVE ( 'NONE', #17, #34, #144, .T. ) ;
#60 = EDGE_CURVE ( 'NONE', #34, #24, #146, .T. ) ;
#61 = EDGE_CURVE ( 'NONE', #25, #31, #200, .T. ) ;
#62 = EDGE_CURVE ( 'NONE', #16, #25, #202, .T. ) ;
#63 = EDGE_CURVE ( 'NONE', #32, #16, #204, .T. ) ;
#64 = EDGE_CURVE ( 'NONE', #15, #12, #206, .T. ) ;
#65 = EDGE_CURVE ( 'NONE', #22, #21, #208, .T. ) ;
#66 = EDGE_CURVE ( 'NONE', #22, #24, #210, .T. ) ;
#67 = AXIS2_PLACEMENT_3D ( 'NONE', #126, #123, #118 ) ;
#68 = EDGE_CURVE ( 'NONE', #14, #12, #212, .T. ) ;
#69 = AXIS2_PLACEMENT_3D ( 'NONE', #124, #114, #111 ) ;
#70 = AXIS2_PLACEMENT_3D ( 'NONE', #108, #112, #94 ) ;
#71 = EDGE_CURVE ( 'NONE', #23, #31, #214, .T. ) ;
#72 = EDGE_CURVE ( 'NONE', #12, #33, #216, .T. ) ;
#73 = AXIS2_PLACEMENT_3D ( 'NONE', #110, #92, #91 ) ;
#74 = AXIS2_PLACEMENT_3D ( 'NONE', #96, #102, #103 ) ;
#75 = CC_DESIGN_APPROVAL ( #78, ( #77 ) ) ;
#76 = CC_DESIGN_PERSON_AND_ORGANIZATION_ASSIGNMENT ( #270, #197, ( #77 ) ) ;
#77 = PRODUCT_DEFINITION ( 'UNKNOWN', '', #45, #269 ) ;
#78 = APPROVAL ( #199, 'UNSPECIFIED' ) ;
#79 = CC_DESIGN_DATE_AND_TIME_ASSIGNMENT ( #274, #195, ( #77 ) ) ;
#80 = CC_DESIGN_PERSON_AND_ORGANIZATION_ASSIGNMENT ( #285, #187, ( #284 ) ) ;
#81 = CC_DESIGN_PERSON_AND_ORGANIZATION_ASSIGNMENT ( #282, #192, ( #45 ) ) ;
#82 = FACE_OUTER_BOUND ( 'NONE', #221, .T. ) ;
#83 = FACE_OUTER_BOUND ( 'NONE', #352, .T. ) ;
#84 = FACE_OUTER_BOUND ( 'NONE', #318, .T. ) ;
#85 = FACE_OUTER_BOUND ( 'NONE', #351, .T. ) ;
#86 = FACE_OUTER_BOUND ( 'NONE', #219, .T. ) ;
#87 = FACE_OUTER_BOUND ( 'NONE', #224, .T. ) ;
#88 = FACE_OUTER_BOUND ( 'NONE', #223, .T. ) ;
#89 = FACE_OUTER_BOUND ( 'NONE', #329, .T. ) ;
#90 = FACE_OUTER_BOUND ( 'NONE', #222, .T. ) ;
#91 = DIRECTION ( 'NONE',  ( 1.000000000000000000, -3.276123471175167400E-017, 0.0000000000000000000 ) ) ;
#92 = DIRECTION ( 'NONE',  ( -3.276123471175167400E-017, -1.000000000000000000, 0.0000000000000000000 ) ) ;
#93 = DIRECTION ( 'NONE',  ( 0.0000000000000000000, 0.0000000000000000000, 1.000000000000000000 ) ) ;
#94 = DIRECTION ( 'NONE',  ( -0.2588190451025181900, 0.9659258262890690900, 0.0000000000000000000 ) ) ;
#95 =( NAMED_UNIT ( * ) SI_UNIT ( $, .STERADIAN. ) SOLID_ANGLE_UNIT ( ) );
#96 = CARTESIAN_POINT ( 'NONE',  ( 7.068251437630927100, -1.734723475976807100E-015, 50.00000000000000000 ) ) ;
#97 = CARTESIAN_POINT ( 'NONE',  ( 0.0000000000000000000, 0.0000000000000000000, 0.0000000000000000000 ) ) ;
#98 = DIRECTION ( 'NONE',  ( 0.0000000000000000000, -1.000000000000000000, 0.0000000000000000000 ) ) ;
#99 = PLANE ( 'NONE',  #67 ) ;
#100 = PLANE ( 'NONE',  #69 ) ;
#101 = CARTESIAN_POINT ( 'NONE',  ( 10.67949192431118500, 10.00000000000000200, 50.00000000000000000 ) ) ;
#102 = DIRECTION ( 'NONE',  ( 0.0000000000000000000, 0.0000000000000000000, -1.000000000000000000 ) ) ;
#103 = DIRECTION ( 'NONE',  ( -1.000000000000000000, 0.0000000000000000000, -0.0000000000000000000 ) ) ;
#104 = PLANE ( 'NONE',  #74 ) ;
#105 = PLANE ( 'NONE',  #53 ) ;
#106 = PLANE ( 'NONE',  #70 ) ;
#107 = DIRECTION ( 'NONE',  ( 0.0000000000000000000, 0.0000000000000000000, -1.000000000000000000 ) ) ;
#108 = CARTESIAN_POINT ( 'NONE',  ( 0.0000000000000000000, 0.0000000000000000000, 50.00000000000000000 ) ) ;
#109 = DIRECTION ( 'NONE',  ( -0.9659258262890694200, 0.2588190451025168500, 0.0000000000000000000 ) ) ;
#110 = CARTESIAN_POINT ( 'NONE',  ( 0.6905942891810676900, 0.9000000000000000200, 50.00000000000000000 ) ) ;
#111 = DIRECTION ( 'NONE',  ( 0.2588190451025180700, -0.9659258262890690900, 0.0000000000000000000 ) ) ;
#112 = DIRECTION ( 'NONE',  ( 0.9659258262890690900, 0.2588190451025181900, -0.0000000000000000000 ) ) ;
#113 = DIRECTION ( 'NONE',  ( -0.2588190451025168000, -0.9659258262890693100, 0.0000000000000000000 ) ) ;
#114 = DIRECTION ( 'NONE',  ( -0.9659258262890690900, -0.2588190451025180700, 0.0000000000000000000 ) ) ;
#115 = DIRECTION ( 'NONE',  ( 0.0000000000000000000, -0.0000000000000000000, -1.000000000000000000 ) ) ;
#116 = DIRECTION ( 'NONE',  ( -1.000000000000000000, 0.0000000000000000000, -0.0000000000000000000 ) ) ;
#117 = PLANE ( 'NONE',  #73 ) ;
#118 = DIRECTION ( 'NONE',  ( 0.2588190451025166300, 0.9659258262890694200, 0.0000000000000000000 ) ) ;
#119 = PLANE ( 'NONE',  #38 ) ;
#120 =( LENGTH_UNIT ( ) NAMED_UNIT ( * ) SI_UNIT ( .MILLI., .METRE. ) );
#121 = CARTESIAN_POINT ( 'NONE',  ( -2.679491924311198800, 10.00000000000000200, 50.00000000000000000 ) ) ;
#122 =( NAMED_UNIT ( * ) PLANE_ANGLE_UNIT ( ) SI_UNIT ( $, .RADIAN. ) );
#123 = DIRECTION ( 'NONE',  ( 0.9659258262890694200, -0.2588190451025166300, 0.0000000000000000000 ) ) ;
#124 = CARTESIAN_POINT ( 'NONE',  ( -1.747743361942122100, 10.00000000000000200, 50.00000000000000000 ) ) ;
#125 = CARTESIAN_POINT ( 'NONE',  ( 7.068251437630927100, -1.734723475976807100E-015, 0.0000000000000000000 ) ) ;
#126 = CARTESIAN_POINT ( 'NONE',  ( 7.309405710818933400, 0.8999999999999998000, 50.00000000000000000 ) ) ;
#127 = PERSON ( 'UNSPECIFIED', 'UNSPECIFIED', 'UNSPECIFIED', ('UNSPECIFIED'), ('UNSPECIFIED'), ('UNSPECIFIED') ) ;
#128 = LINE ( 'NONE', #176, #129 ) ;
#129 = VECTOR ( 'NONE', #172, 1000.000000000000100 ) ;
#130 = LINE ( 'NONE', #149, #131 ) ;
#131 = VECTOR ( 'NONE', #174, 1000.000000000000000 ) ;
#132 = LINE ( 'NONE', #168, #133 ) ;
#133 = VECTOR ( 'NONE', #179, 1000.000000000000000 ) ;
#134 = LINE ( 'NONE', #162, #135 ) ;
#135 = VECTOR ( 'NONE', #160, 1000.000000000000000 ) ;
#136 = LINE ( 'NONE', #166, #137 ) ;
#137 = VECTOR ( 'NONE', #155, 1000.000000000000000 ) ;
#138 = LINE ( 'NONE', #177, #139 ) ;
#139 = VECTOR ( 'NONE', #159, 1000.000000000000100 ) ;
#140 = LINE ( 'NONE', #152, #141 ) ;
#141 = VECTOR ( 'NONE', #171, 1000.000000000000000 ) ;
#142 = LINE ( 'NONE', #238, #143 ) ;
#143 = VECTOR ( 'NONE', #239, 1000.000000000000200 ) ;
#144 = LINE ( 'NONE', #256, #145 ) ;
#145 = VECTOR ( 'NONE', #250, 1000.000000000000000 ) ;
#146 = LINE ( 'NONE', #263, #147 ) ;
#147 = VECTOR ( 'NONE', #267, 1000.000000000000100 ) ;
#148 = CARTESIAN_POINT ( 'NONE',  ( 7.309405710818933400, 0.8999999999999998000, 0.0000000000000000000 ) ) ;
#149 = CARTESIAN_POINT ( 'NONE',  ( 8.000000000000000000, -2.195599280053263200E-015, 0.0000000000000000000 ) ) ;
#150 = CARTESIAN_POINT ( 'NONE',  ( 9.747743361942109900, 10.00000000000000200, 0.0000000000000000000 ) ) ;
#151 = CARTESIAN_POINT ( 'NONE',  ( 9.747743361942109900, 10.00000000000000200, 50.00000000000000000 ) ) ;
#152 = CARTESIAN_POINT ( 'NONE',  ( 8.000000000000000000, -2.195599280053263200E-015, 50.00000000000000000 ) ) ;
#153 = CARTESIAN_POINT ( 'NONE',  ( 9.747743361942109900, 10.00000000000000200, 50.00000000000000000 ) ) ;
#154 = DIRECTION ( 'NONE',  ( -1.000000000000000000, -0.0000000000000000000, -0.0000000000000000000 ) ) ;
#155 = DIRECTION ( 'NONE',  ( -1.000000000000000000, -0.0000000000000000000, -0.0000000000000000000 ) ) ;
#156 = CARTESIAN_POINT ( 'NONE',  ( 7.309405710818933400, 0.8999999999999998000, 50.00000000000000000 ) ) ;
#157 = CARTESIAN_POINT ( 'NONE',  ( -1.747743361942122100, 10.00000000000000200, 50.00000000000000000 ) ) ;
#158 = CARTESIAN_POINT ( 'NONE',  ( -1.747743361942122100, 10.00000000000000200, 0.0000000000000000000 ) ) ;
#159 = DIRECTION ( 'NONE',  ( 0.2588190451025181900, -0.9659258262890689800, -0.0000000000000000000 ) ) ;
#160 = DIRECTION ( 'NONE',  ( -0.0000000000000000000, -0.0000000000000000000, -1.000000000000000000 ) ) ;
#161 = CARTESIAN_POINT ( 'NONE',  ( -1.747743361942122100, 10.00000000000000200, 50.00000000000000000 ) ) ;
#162 = CARTESIAN_POINT ( 'NONE',  ( 7.309405710818933400, 0.8999999999999998000, 50.00000000000000000 ) ) ;
#163 = DIRECTION ( 'NONE',  ( -1.000000000000000000, 3.276123471175167400E-017, -0.0000000000000000000 ) ) ;
#164 = CARTESIAN_POINT ( 'NONE',  ( -2.679491924311198800, 10.00000000000000200, 0.0000000000000000000 ) ) ;
#165 = CARTESIAN_POINT ( 'NONE',  ( 0.6905942891810676900, 0.9000000000000000200, 0.0000000000000000000 ) ) ;
#166 = CARTESIAN_POINT ( 'NONE',  ( -2.679491924311198800, 10.00000000000000200, 50.00000000000000000 ) ) ;
#167 = DIRECTION ( 'NONE',  ( -0.2588190451025180700, 0.9659258262890690900, -0.0000000000000000000 ) ) ;
#168 = CARTESIAN_POINT ( 'NONE',  ( -2.679491924311198800, 10.00000000000000200, 0.0000000000000000000 ) ) ;
#169 = CARTESIAN_POINT ( 'NONE',  ( 0.0000000000000000000, 0.0000000000000000000, 0.0000000000000000000 ) ) ;
#170 = DIRECTION ( 'NONE',  ( -0.0000000000000000000, -0.0000000000000000000, -1.000000000000000000 ) ) ;
#171 = DIRECTION ( 'NONE',  ( -0.0000000000000000000, -0.0000000000000000000, -1.000000000000000000 ) ) ;
#172 = DIRECTION ( 'NONE',  ( -0.2588190451025166300, -0.9659258262890694200, -0.0000000000000000000 ) ) ;
#173 = CARTESIAN_POINT ( 'NONE',  ( 7.309405710818933400, 0.8999999999999998000, 0.0000000000000000000 ) ) ;
#174 = DIRECTION ( 'NONE',  ( 1.000000000000000000, -2.744499100066579100E-016, -0.0000000000000000000 ) ) ;
#175 = CARTESIAN_POINT ( 'NONE',  ( 0.6905942891810676900, 0.9000000000000000200, 0.0000000000000000000 ) ) ;
#176 = CARTESIAN_POINT ( 'NONE',  ( 7.309405710818933400, 0.8999999999999998000, 50.00000000000000000 ) ) ;
#177 = CARTESIAN_POINT ( 'NONE',  ( 0.0000000000000000000, 0.0000000000000000000, 50.00000000000000000 ) ) ;
#178 = DIRECTION ( 'NONE',  ( -0.2588190451025166300, -0.9659258262890694200, -0.0000000000000000000 ) ) ;
#179 = DIRECTION ( 'NONE',  ( -1.000000000000000000, -0.0000000000000000000, -0.0000000000000000000 ) ) ;
#180 = APPLICATION_CONTEXT ( 'configuration controlled 3d designs of mechanical parts and assemblies' ) ;
#181 = DIRECTION ( 'NONE',  ( 1.000000000000000000, 0.0000000000000000000, 0.0000000000000000000 ) ) ;
#182 = APPROVAL_STATUS ( 'not_yet_approved' ) ;
#183 = APPLICATION_PROTOCOL_DEFINITION ( 'international standard', 'config_control_design', 1994, #186 ) ;
#184 = DATE_TIME_ROLE ( 'classification_date' ) ;
#185 = APPROVAL_ROLE ( '' ) ;
#186 = APPLICATION_CONTEXT ( 'configuration controlled 3d designs of mechanical parts and assemblies' ) ;
#187 = PERSON_AND_ORGANIZATION_ROLE ( 'classification_officer' ) ;
#188 = PERSON_AND_ORGANIZATION_ROLE ( 'design_owner' ) ;
#189 = MECHANICAL_CONTEXT ( 'NONE', #180, 'mechanical' ) ;
#190 = SECURITY_CLASSIFICATION_LEVEL ( 'unclassified' ) ;
#191 = PERSON_AND_ORGANIZATION_ROLE ( 'design_supplier' ) ;
#192 = PERSON_AND_ORGANIZATION_ROLE ( 'creator' ) ;
#193 = APPROVAL_ROLE ( '' ) ;
#194 = APPROVAL_STATUS ( 'not_yet_approved' ) ;
#195 = DATE_TIME_ROLE ( 'creation_date' ) ;
#196 = APPLICATION_PROTOCOL_DEFINITION ( 'international standard', 'config_control_design', 1994, #180 ) ;
#197 = PERSON_AND_ORGANIZATION_ROLE ( 'creator' ) ;
#198 = APPROVAL_ROLE ( '' ) ;
#199 = APPROVAL_STATUS ( 'not_yet_approved' ) ;
#200 = LINE ( 'NONE', #236, #201 ) ;
#201 = VECTOR ( 'NONE', #237, 1000.000000000000000 ) ;
#202 = LINE ( 'NONE', #243, #203 ) ;
#203 = VECTOR ( 'NONE', #240, 1000.000000000000000 ) ;
#204 = LINE ( 'NONE', #253, #205 ) ;
#205 = VECTOR ( 'NONE', #245, 1000.000000000000000 ) ;
#206 = LINE ( 'NONE', #254, #207 ) ;
#207 = VECTOR ( 'NONE', #265, 1000.000000000000000 ) ;
#208 = LINE ( 'NONE', #257, #209 ) ;
#209 = VECTOR ( 'NONE', #259, 1000.000000000000000 ) ;
#210 = LINE ( 'NONE', #249, #211 ) ;
#211 = VECTOR ( 'NONE', #251, 1000.000000000000000 ) ;
#212 = LINE ( 'NONE', #260, #213 ) ;
#213 = VECTOR ( 'NONE', #252, 1000.000000000000200 ) ;
#214 = LINE ( 'NONE', #255, #215 ) ;
#215 = VECTOR ( 'NONE', #261, 1000.000000000000000 ) ;
#216 = LINE ( 'NONE', #264, #217 ) ;
#217 = VECTOR ( 'NONE', #266, 1000.000000000000000 ) ;
#218 = FACE_OUTER_BOUND ( 'NONE', #220, .T. ) ;
#219 = EDGE_LOOP ( 'NONE', ( #320, #319, #1, #2 ) ) ;
#220 = EDGE_LOOP ( 'NONE', ( #334, #333, #332, #331 ) ) ;
#221 = EDGE_LOOP ( 'NONE', ( #314, #325, #326, #322 ) ) ;
#222 = EDGE_LOOP ( 'NONE', ( #227, #228, #229, #230, #231, #232, #233, #234 ) ) ;
#223 = EDGE_LOOP ( 'NONE', ( #308, #309, #310, #311 ) ) ;
#224 = EDGE_LOOP ( 'NONE', ( #3, #4, #5, #6 ) ) ;
#225 = ORIENTED_EDGE ( 'NONE', *, *, #54, .T. ) ;
#226 = ORIENTED_EDGE ( 'NONE', *, *, #56, .T. ) ;
#227 = ORIENTED_EDGE ( 'NONE', *, *, #49, .F. ) ;
#228 = ORIENTED_EDGE ( 'NONE', *, *, #60, .F. ) ;
#229 = ORIENTED_EDGE ( 'NONE', *, *, #50, .F. ) ;
#230 = ORIENTED_EDGE ( 'NONE', *, *, #61, .F. ) ;
#231 = ORIENTED_EDGE ( 'NONE', *, *, #39, .F. ) ;
#232 = ORIENTED_EDGE ( 'NONE', *, *, #37, .F. ) ;
#233 = ORIENTED_EDGE ( 'NONE', *, *, #72, .F. ) ;
#234 = ORIENTED_EDGE ( 'NONE', *, *, #68, .F. ) ;
#235 = DIRECTION ( 'NONE',  ( -1.000000000000000000, 2.744499100066579100E-016, 0.0000000000000000000 ) ) ;
#236 = CARTESIAN_POINT ( 'NONE',  ( -1.747743361942122100, 10.00000000000000200, 0.0000000000000000000 ) ) ;
#237 = DIRECTION ( 'NONE',  ( -0.2588190451025180700, 0.9659258262890690900, -0.0000000000000000000 ) ) ;
#238 = CARTESIAN_POINT ( 'NONE',  ( 10.67949192431118500, 10.00000000000000200, 50.00000000000000000 ) ) ;
#239 = DIRECTION ( 'NONE',  ( 0.2588190451025168000, 0.9659258262890693100, -0.0000000000000000000 ) ) ;
#240 = DIRECTION ( 'NONE',  ( -0.0000000000000000000, -0.0000000000000000000, -1.000000000000000000 ) ) ;
#241 = DIRECTION ( 'NONE',  ( 0.0000000000000000000, -0.0000000000000000000, -1.000000000000000000 ) ) ;
#242 = DIRECTION ( 'NONE',  ( 0.0000000000000000000, -1.000000000000000000, 0.0000000000000000000 ) ) ;
#243 = CARTESIAN_POINT ( 'NONE',  ( 0.6905942891810676900, 0.9000000000000000200, 50.00000000000000000 ) ) ;
#244 = PLANE ( 'NONE',  #55 ) ;
#245 = DIRECTION ( 'NONE',  ( -1.000000000000000000, 3.276123471175167400E-017, -0.0000000000000000000 ) ) ;
#246 = DIRECTION ( 'NONE',  ( 2.744499100066579100E-016, 1.000000000000000000, -0.0000000000000000000 ) ) ;
#247 = CARTESIAN_POINT ( 'NONE',  ( 8.000000000000000000, -2.195599280053263200E-015, 50.00000000000000000 ) ) ;
#248 = PLANE ( 'NONE',  #44 ) ;
#249 = CARTESIAN_POINT ( 'NONE',  ( 0.0000000000000000000, 0.0000000000000000000, 50.00000000000000000 ) ) ;
#250 = DIRECTION ( 'NONE',  ( -0.0000000000000000000, -0.0000000000000000000, -1.000000000000000000 ) ) ;
#251 = DIRECTION ( 'NONE',  ( -0.0000000000000000000, -0.0000000000000000000, -1.000000000000000000 ) ) ;
#252 = DIRECTION ( 'NONE',  ( 0.2588190451025168000, 0.9659258262890693100, -0.0000000000000000000 ) ) ;
#253 = CARTESIAN_POINT ( 'NONE',  ( 0.6905942891810676900, 0.9000000000000000200, 50.00000000000000000 ) ) ;
#254 = CARTESIAN_POINT ( 'NONE',  ( 10.67949192431118500, 10.00000000000000200, 50.00000000000000000 ) ) ;
#255 = CARTESIAN_POINT ( 'NONE',  ( -1.747743361942122100, 10.00000000000000200, 50.00000000000000000 ) ) ;
#256 = CARTESIAN_POINT ( 'NONE',  ( -2.679491924311198800, 10.00000000000000200, 50.00000000000000000 ) ) ;
#257 = CARTESIAN_POINT ( 'NONE',  ( 8.000000000000000000, -2.195599280053263200E-015, 50.00000000000000000 ) ) ;
#258 = CARTESIAN_POINT ( 'NONE',  ( 9.747743361942109900, 10.00000000000000200, 50.00000000000000000 ) ) ;
#259 = DIRECTION ( 'NONE',  ( 1.000000000000000000, -2.744499100066579100E-016, -0.0000000000000000000 ) ) ;
#260 = CARTESIAN_POINT ( 'NONE',  ( 10.67949192431118500, 10.00000000000000200, 0.0000000000000000000 ) ) ;
#261 = DIRECTION ( 'NONE',  ( -0.0000000000000000000, -0.0000000000000000000, -1.000000000000000000 ) ) ;
#262 = PLANE ( 'NONE',  #48 ) ;
#263 = CARTESIAN_POINT ( 'NONE',  ( 0.0000000000000000000, 0.0000000000000000000, 0.0000000000000000000 ) ) ;
#264 = CARTESIAN_POINT ( 'NONE',  ( 9.747743361942109900, 10.00000000000000200, 0.0000000000000000000 ) ) ;
#265 = DIRECTION ( 'NONE',  ( -0.0000000000000000000, -0.0000000000000000000, -1.000000000000000000 ) ) ;
#266 = DIRECTION ( 'NONE',  ( -1.000000000000000000, -0.0000000000000000000, -0.0000000000000000000 ) ) ;
#267 = DIRECTION ( 'NONE',  ( 0.2588190451025181900, -0.9659258262890689800, -0.0000000000000000000 ) ) ;
#268 = PRODUCT_DEFINITION_SHAPE ( 'NONE', 'NONE',  #77 ) ;
#269 = DESIGN_CONTEXT ( 'detailed design', #186, 'design' ) ;
#270 = PERSON_AND_ORGANIZATION ( #127, #299 ) ;
#271 = COORDINATED_UNIVERSAL_TIME_OFFSET ( 3, 0, .BEHIND. ) ;
#272 = LOCAL_TIME ( 11, 54, 42.00000000000000000, #271 ) ;
#273 = CALENDAR_DATE ( 2018, 28, 3 ) ;
#274 = DATE_AND_TIME ( #273, #272 ) ;
#275 = PERSON_AND_ORGANIZATION ( #127, #299 ) ;
#276 = APPROVAL_PERSON_ORGANIZATION ( #275, #41, #193 ) ;
#277 = COORDINATED_UNIVERSAL_TIME_OFFSET ( 3, 0, .BEHIND. ) ;
#278 = LOCAL_TIME ( 11, 54, 42.00000000000000000, #277 ) ;
#279 = CALENDAR_DATE ( 2018, 28, 3 ) ;
#280 = DATE_AND_TIME ( #279, #278 ) ;
#281 = APPROVAL_DATE_TIME ( #280, #41 ) ;
#282 = PERSON_AND_ORGANIZATION ( #127, #299 ) ;
#283 = PERSON_AND_ORGANIZATION ( #127, #299 ) ;
#284 = SECURITY_CLASSIFICATION ( '', '', #190 ) ;
#285 = PERSON_AND_ORGANIZATION ( #127, #299 ) ;
#286 = COORDINATED_UNIVERSAL_TIME_OFFSET ( 3, 0, .BEHIND. ) ;
#287 = LOCAL_TIME ( 11, 54, 42.00000000000000000, #286 ) ;
#288 = CALENDAR_DATE ( 2018, 28, 3 ) ;
#289 = DATE_AND_TIME ( #288, #287 ) ;
#290 = PERSON_AND_ORGANIZATION ( #127, #299 ) ;
#291 = APPROVAL_PERSON_ORGANIZATION ( #290, #365, #185 ) ;
#292 = COORDINATED_UNIVERSAL_TIME_OFFSET ( 3, 0, .BEHIND. ) ;
#293 = LOCAL_TIME ( 11, 54, 42.00000000000000000, #292 ) ;
#294 = CALENDAR_DATE ( 2018, 28, 3 ) ;
#295 = DATE_AND_TIME ( #294, #293 ) ;
#296 = APPROVAL_DATE_TIME ( #295, #365 ) ;
#297 =( GEOMETRIC_REPRESENTATION_CONTEXT ( 3 ) GLOBAL_UNCERTAINTY_ASSIGNED_CONTEXT ( ( #328 ) ) GLOBAL_UNIT_ASSIGNED_CONTEXT ( ( #120, #122, #95 ) ) REPRESENTATION_CONTEXT ( 'NONE', 'WORKASPACE' ) );
#298 = SHAPE_DEFINITION_REPRESENTATION ( #268, #364 ) ;
#299 = ORGANIZATION ( 'UNSPECIFIED', 'UNSPECIFIED', '' ) ;
#300 = PERSON_AND_ORGANIZATION ( #127, #299 ) ;
#301 = PERSON_AND_ORGANIZATION ( #127, #299 ) ;
#302 = APPROVAL_PERSON_ORGANIZATION ( #301, #78, #198 ) ;
#303 = COORDINATED_UNIVERSAL_TIME_OFFSET ( 3, 0, .BEHIND. ) ;
#304 = LOCAL_TIME ( 11, 54, 42.00000000000000000, #303 ) ;
#305 = CALENDAR_DATE ( 2018, 28, 3 ) ;
#306 = DATE_AND_TIME ( #305, #304 ) ;
#307 = APPROVAL_DATE_TIME ( #306, #78 ) ;
#308 = ORIENTED_EDGE ( 'NONE', *, *, #60, .T. ) ;
#309 = ORIENTED_EDGE ( 'NONE', *, *, #66, .F. ) ;
#310 = ORIENTED_EDGE ( 'NONE', *, *, #56, .F. ) ;
#311 = ORIENTED_EDGE ( 'NONE', *, *, #59, .T. ) ;
#312 = ORIENTED_EDGE ( 'NONE', *, *, #65, .T. ) ;
#313 = CLOSED_SHELL ( 'NONE', ( #354, #356, #355, #357, #359, #360, #358, #361, #362, #363 ) ) ;
#314 = ORIENTED_EDGE ( 'NONE', *, *, #72, .T. ) ;
#315 = ORIENTED_EDGE ( 'NONE', *, *, #58, .F. ) ;
#316 = ORIENTED_EDGE ( 'NONE', *, *, #57, .T. ) ;
#317 = ORIENTED_EDGE ( 'NONE', *, *, #64, .F. ) ;
#318 = EDGE_LOOP ( 'NONE', ( #324, #327, #321, #323 ) ) ;
#319 = ORIENTED_EDGE ( 'NONE', *, *, #62, .F. ) ;
#320 = ORIENTED_EDGE ( 'NONE', *, *, #39, .T. ) ;
#321 = ORIENTED_EDGE ( 'NONE', *, *, #47, .F. ) ;
#322 = ORIENTED_EDGE ( 'NONE', *, *, #64, .T. ) ;
#323 = ORIENTED_EDGE ( 'NONE', *, *, #40, .T. ) ;
#324 = ORIENTED_EDGE ( 'NONE', *, *, #37, .T. ) ;
#325 = ORIENTED_EDGE ( 'NONE', *, *, #40, .F. ) ;
#326 = ORIENTED_EDGE ( 'NONE', *, *, #42, .F. ) ;
#327 = ORIENTED_EDGE ( 'NONE', *, *, #52, .F. ) ;
#328 = UNCERTAINTY_MEASURE_WITH_UNIT (LENGTH_MEASURE( 1.000000000000000100E-005 ), #120, 'distance_accuracy_value', 'NONE');
#329 = EDGE_LOOP ( 'NONE', ( #312, #335, #336, #337, #338, #339, #225, #226 ) ) ;
#330 = ORIENTED_EDGE ( 'NONE', *, *, #68, .T. ) ;
#331 = ORIENTED_EDGE ( 'NONE', *, *, #66, .T. ) ;
#332 = ORIENTED_EDGE ( 'NONE', *, *, #65, .F. ) ;
#333 = ORIENTED_EDGE ( 'NONE', *, *, #57, .F. ) ;
#334 = ORIENTED_EDGE ( 'NONE', *, *, #49, .T. ) ;
#335 = ORIENTED_EDGE ( 'NONE', *, *, #58, .T. ) ;
#336 = ORIENTED_EDGE ( 'NONE', *, *, #42, .T. ) ;
#337 = ORIENTED_EDGE ( 'NONE', *, *, #47, .T. ) ;
#338 = ORIENTED_EDGE ( 'NONE', *, *, #63, .T. ) ;
#339 = ORIENTED_EDGE ( 'NONE', *, *, #43, .T. ) ;
#340 = LINE ( 'NONE', #148, #341 ) ;
#341 = VECTOR ( 'NONE', #178, 1000.000000000000100 ) ;
#342 = LINE ( 'NONE', #165, #343 ) ;
#343 = VECTOR ( 'NONE', #163, 1000.000000000000000 ) ;
#344 = LINE ( 'NONE', #153, #345 ) ;
#345 = VECTOR ( 'NONE', #170, 1000.000000000000000 ) ;
#346 = LINE ( 'NONE', #151, #347 ) ;
#347 = VECTOR ( 'NONE', #154, 1000.000000000000000 ) ;
#348 = LINE ( 'NONE', #161, #349 ) ;
#349 = VECTOR ( 'NONE', #167, 1000.000000000000000 ) ;
#350 = PRODUCT ( 'C39-50', 'C39-50', '', ( #189 ) ) ;
#351 = EDGE_LOOP ( 'NONE', ( #7, #8, #9, #10 ) ) ;
#352 = EDGE_LOOP ( 'NONE', ( #330, #317, #315, #316 ) ) ;
#353 = MANIFOLD_SOLID_BREP ( 'NONE', #313 ) ;
#354 = ADVANCED_FACE ( 'NONE', ( #218 ), #248, .F. ) ;
#355 = ADVANCED_FACE ( 'NONE', ( #82 ), #262, .F. ) ;
#356 = ADVANCED_FACE ( 'NONE', ( #83 ), #244, .F. ) ;
#357 = ADVANCED_FACE ( 'NONE', ( #84 ), #99, .F. ) ;
#358 = ADVANCED_FACE ( 'NONE', ( #85 ), #119, .F. ) ;
#359 = ADVANCED_FACE ( 'NONE', ( #86 ), #117, .F. ) ;
#360 = ADVANCED_FACE ( 'NONE', ( #87 ), #100, .F. ) ;
#361 = ADVANCED_FACE ( 'NONE', ( #88 ), #106, .F. ) ;
#362 = ADVANCED_FACE ( 'NONE', ( #89 ), #104, .F. ) ;
#363 = ADVANCED_FACE ( 'NONE', ( #90 ), #105, .T. ) ;
#364 = ADVANCED_BREP_SHAPE_REPRESENTATION ( 'C39-50', ( #353, #46 ), #297 ) ;
#365 = APPROVAL ( #182, 'UNSPECIFIED' ) ;
#366 = CC_DESIGN_SECURITY_CLASSIFICATION ( #284, ( #45 ) ) ;
#367 = PRODUCT_RELATED_PRODUCT_CATEGORY ( 'detail', '', ( #350 ) ) ;
#368 = CC_DESIGN_APPROVAL ( #365, ( #284 ) ) ;
#369 = CC_DESIGN_DATE_AND_TIME_ASSIGNMENT ( #289, #184, ( #284 ) ) ;
ENDSEC;
END-ISO-10303-21;
