ISO-10303-21;
HEADER;
FILE_DESCRIPTION (( 'STEP AP203' ),
    '1' );
FILE_NAME ('A39-50.STEP',
    '2018-03-28T14:51:09',
    ( 'User2' ),
    ( '' ),
    'SwSTEP 2.0',
    'SolidWorks 2007',
    '' );
FILE_SCHEMA (( 'CONFIG_CONTROL_DESIGN' ));
ENDSEC;

DATA;
#1 = ORIENTED_EDGE ( 'NONE', *, *, #39, .T. ) ;
#2 = ORIENTED_EDGE ( 'NONE', *, *, #44, .T. ) ;
#3 = ORIENTED_EDGE ( 'NONE', *, *, #47, .T. ) ;
#4 = ORIENTED_EDGE ( 'NONE', *, *, #49, .T. ) ;
#5 = ORIENTED_EDGE ( 'NONE', *, *, #52, .T. ) ;
#6 = ORIENTED_EDGE ( 'NONE', *, *, #54, .T. ) ;
#7 = ORIENTED_EDGE ( 'NONE', *, *, #59, .T. ) ;
#8 = ORIENTED_EDGE ( 'NONE', *, *, #58, .T. ) ;
#9 = ORIENTED_EDGE ( 'NONE', *, *, #37, .F. ) ;
#10 = ORIENTED_EDGE ( 'NONE', *, *, #57, .F. ) ;
#11 = CC_DESIGN_DATE_AND_TIME_ASSIGNMENT ( #125, #268, ( #120 ) ) ;
#12 = CC_DESIGN_APPROVAL ( #25, ( #19 ) ) ;
#13 = CC_DESIGN_APPROVAL ( #14, ( #120 ) ) ;
#14 = APPROVAL ( #269, 'UNSPECIFIED' ) ;
#15 = CC_DESIGN_DATE_AND_TIME_ASSIGNMENT ( #110, #261, ( #19 ) ) ;
#16 = APPROVAL ( #262, 'UNSPECIFIED' ) ;
#17 = CC_DESIGN_PERSON_AND_ORGANIZATION_ASSIGNMENT ( #118, #264, ( #22 ) ) ;
#18 = CC_DESIGN_PERSON_AND_ORGANIZATION_ASSIGNMENT ( #121, #267, ( #120 ) ) ;
#19 = PRODUCT_DEFINITION ( 'UNKNOWN', '', #22, #162 ) ;
#20 = CC_DESIGN_PERSON_AND_ORGANIZATION_ASSIGNMENT ( #119, #265, ( #22 ) ) ;
#21 = CC_DESIGN_APPROVAL ( #16, ( #22 ) ) ;
#22 = PRODUCT_DEFINITION_FORMATION_WITH_SPECIFIED_SOURCE ( 'ANY', '', #133, .NOT_KNOWN. ) ;
#23 = CC_DESIGN_PERSON_AND_ORGANIZATION_ASSIGNMENT ( #106, #260, ( #19 ) ) ;
#24 = AXIS2_PLACEMENT_3D ( 'NONE', #344, #345, #343 ) ;
#25 = APPROVAL ( #258, 'UNSPECIFIED' ) ;
#26 = AXIS2_PLACEMENT_3D ( 'NONE', #249, #250, #251 ) ;
#27 = CC_DESIGN_PERSON_AND_ORGANIZATION_ASSIGNMENT ( #158, #255, ( #133 ) ) ;
#28 = AXIS2_PLACEMENT_3D ( 'NONE', #188, #189, #191 ) ;
#29 = AXIS2_PLACEMENT_3D ( 'NONE', #349, #351, #348 ) ;
#30 = AXIS2_PLACEMENT_3D ( 'NONE', #352, #336, #339 ) ;
#31 = AXIS2_PLACEMENT_3D ( 'NONE', #184, #186, #190 ) ;
#32 = AXIS2_PLACEMENT_3D ( 'NONE', #85, #88, #87 ) ;
#33 = AXIS2_PLACEMENT_3D ( 'NONE', #180, #181, #182 ) ;
#34 = AXIS2_PLACEMENT_3D ( 'NONE', #175, #176, #177 ) ;
#35 = AXIS2_PLACEMENT_3D ( 'NONE', #84, #83, #185 ) ;
#36 = AXIS2_PLACEMENT_3D ( 'NONE', #80, #81, #82 ) ;
#37 = EDGE_CURVE ( 'NONE', #302, #296, #364, .T. ) ;
#38 = EDGE_CURVE ( 'NONE', #300, #296, #366, .T. ) ;
#39 = EDGE_CURVE ( 'NONE', #295, #300, #368, .T. ) ;
#40 = EDGE_CURVE ( 'NONE', #299, #290, #203, .T. ) ;
#41 = EDGE_CURVE ( 'NONE', #272, #299, #205, .T. ) ;
#42 = EDGE_CURVE ( 'NONE', #296, #299, #207, .T. ) ;
#43 = EDGE_CURVE ( 'NONE', #295, #302, #209, .T. ) ;
#44 = EDGE_CURVE ( 'NONE', #300, #272, #211, .T. ) ;
#45 = EDGE_CURVE ( 'NONE', #298, #290, #193, .T. ) ;
#46 = EDGE_CURVE ( 'NONE', #294, #297, #195, .T. ) ;
#47 = EDGE_CURVE ( 'NONE', #272, #298, #197, .T. ) ;
#48 = EDGE_CURVE ( 'NONE', #276, #293, #199, .T. ) ;
#49 = EDGE_CURVE ( 'NONE', #298, #294, #201, .T. ) ;
#50 = EDGE_CURVE ( 'NONE', #297, #276, #134, .T. ) ;
#51 = EDGE_CURVE ( 'NONE', #277, #276, #136, .T. ) ;
#52 = EDGE_CURVE ( 'NONE', #294, #277, #138, .T. ) ;
#53 = EDGE_CURVE ( 'NONE', #273, #293, #140, .T. ) ;
#54 = EDGE_CURVE ( 'NONE', #277, #273, #142, .T. ) ;
#55 = EDGE_CURVE ( 'NONE', #280, #285, #144, .T. ) ;
#56 = EDGE_CURVE ( 'NONE', #293, #285, #146, .T. ) ;
#57 = EDGE_CURVE ( 'NONE', #285, #302, #148, .T. ) ;
#58 = EDGE_CURVE ( 'NONE', #280, #295, #150, .T. ) ;
#59 = EDGE_CURVE ( 'NONE', #273, #280, #152, .T. ) ;
#60 = EDGE_CURVE ( 'NONE', #290, #297, #164, .T. ) ;
#61 = CC_DESIGN_SECURITY_CLASSIFICATION ( #120, ( #22 ) ) ;
#62 = PRODUCT_RELATED_PRODUCT_CATEGORY ( 'detail', '', ( #133 ) ) ;
#63 = CARTESIAN_POINT ( 'NONE',  ( -2.953514727882160100, 14.50000000000000200, 50.00000000000000000 ) ) ;
#64 = DIRECTION ( 'NONE',  ( -0.0000000000000000000, -0.0000000000000000000, -1.000000000000000000 ) ) ;
#65 = CARTESIAN_POINT ( 'NONE',  ( -2.953514727882160100, 14.50000000000000200, 50.00000000000000000 ) ) ;
#66 = DIRECTION ( 'NONE',  ( -0.2588190451025179600, 0.9659258262890690900, -0.0000000000000000000 ) ) ;
#67 = CARTESIAN_POINT ( 'NONE',  ( -3.885263290251237000, 14.50000000000000200, 50.00000000000000000 ) ) ;
#68 = DIRECTION ( 'NONE',  ( -0.0000000000000000000, -0.0000000000000000000, -1.000000000000000000 ) ) ;
#69 = CARTESIAN_POINT ( 'NONE',  ( -3.885263290251237000, 14.50000000000000200, 0.0000000000000000000 ) ) ;
#70 = DIRECTION ( 'NONE',  ( -1.000000000000000000, -0.0000000000000000000, -0.0000000000000000000 ) ) ;
#71 = CARTESIAN_POINT ( 'NONE',  ( 0.0000000000000000000, 0.0000000000000000000, 0.0000000000000000000 ) ) ;
#72 = DIRECTION ( 'NONE',  ( 0.2588190451025181300, -0.9659258262890689800, -0.0000000000000000000 ) ) ;
#73 = CARTESIAN_POINT ( 'NONE',  ( 0.0000000000000000000, 0.0000000000000000000, 50.00000000000000000 ) ) ;
#74 = DIRECTION ( 'NONE',  ( 0.2588190451025181300, -0.9659258262890689800, -0.0000000000000000000 ) ) ;
#75 = CARTESIAN_POINT ( 'NONE',  ( -3.885263290251237000, 14.50000000000000200, 50.00000000000000000 ) ) ;
#76 = DIRECTION ( 'NONE',  ( -1.000000000000000000, -0.0000000000000000000, -0.0000000000000000000 ) ) ;
#77 = CARTESIAN_POINT ( 'NONE',  ( 7.309405710818933400, 0.8999999999999998000, 0.0000000000000000000 ) ) ;
#78 = DIRECTION ( 'NONE',  ( -0.2588190451025184100, -0.9659258262890689800, -0.0000000000000000000 ) ) ;
#79 = PLANE ( 'NONE',  #36 ) ;
#80 = CARTESIAN_POINT ( 'NONE',  ( 10.95351472788216700, 14.50000000000000200, 50.00000000000000000 ) ) ;
#81 = DIRECTION ( 'NONE',  ( 1.861793563239946800E-015, -1.000000000000000000, 0.0000000000000000000 ) ) ;
#82 = DIRECTION ( 'NONE',  ( 1.000000000000000000, 1.861793563239946800E-015, 0.0000000000000000000 ) ) ;
#83 = DIRECTION ( 'NONE',  ( -0.9659258262890690900, 0.2588190451025180200, 0.0000000000000000000 ) ) ;
#84 = CARTESIAN_POINT ( 'NONE',  ( 11.88526329025123700, 14.50000000000000400, 50.00000000000000000 ) ) ;
#85 = CARTESIAN_POINT ( 'NONE',  ( 8.000000000000000000, -2.195599280053263200E-015, 50.00000000000000000 ) ) ;
#86 = PLANE ( 'NONE',  #35 ) ;
#87 = DIRECTION ( 'NONE',  ( -1.000000000000000000, 2.744499100066579100E-016, 0.0000000000000000000 ) ) ;
#88 = DIRECTION ( 'NONE',  ( 2.744499100066579100E-016, 1.000000000000000000, -0.0000000000000000000 ) ) ;
#89 = PLANE ( 'NONE',  #32 ) ;
#90 = ADVANCED_FACE ( 'NONE', ( #166 ), #79, .F. ) ;
#91 = ADVANCED_FACE ( 'NONE', ( #167 ), #89, .F. ) ;
#92 = ADVANCED_FACE ( 'NONE', ( #168 ), #86, .F. ) ;
#93 = ADVANCED_FACE ( 'NONE', ( #169 ), #179, .F. ) ;
#94 = ADVANCED_FACE ( 'NONE', ( #170 ), #178, .F. ) ;
#95 = ADVANCED_FACE ( 'NONE', ( #171 ), #183, .F. ) ;
#96 = ADVANCED_FACE ( 'NONE', ( #172 ), #187, .F. ) ;
#97 = ADVANCED_FACE ( 'NONE', ( #173 ), #337, .F. ) ;
#98 = ADVANCED_FACE ( 'NONE', ( #174 ), #342, .T. ) ;
#99 = ADVANCED_FACE ( 'NONE', ( #154 ), #341, .F. ) ;
#100 = MANIFOLD_SOLID_BREP ( 'NONE', #360 ) ;
#101 = ADVANCED_BREP_SHAPE_REPRESENTATION ( 'A39-50', ( #100, #26 ), #155 ) ;
#102 = LOCAL_TIME ( 11, 51, 9.000000000000000000, #161 ) ;
#103 = CALENDAR_DATE ( 2018, 28, 3 ) ;
#104 = DATE_AND_TIME ( #103, #102 ) ;
#105 = APPROVAL_DATE_TIME ( #104, #25 ) ;
#106 = PERSON_AND_ORGANIZATION ( #192, #157 ) ;
#107 = COORDINATED_UNIVERSAL_TIME_OFFSET ( 3, 0, .BEHIND. ) ;
#108 = LOCAL_TIME ( 11, 51, 9.000000000000000000, #107 ) ;
#109 = CALENDAR_DATE ( 2018, 28, 3 ) ;
#110 = DATE_AND_TIME ( #109, #108 ) ;
#111 = PERSON_AND_ORGANIZATION ( #192, #157 ) ;
#112 = APPROVAL_PERSON_ORGANIZATION ( #111, #16, #263 ) ;
#113 = COORDINATED_UNIVERSAL_TIME_OFFSET ( 3, 0, .BEHIND. ) ;
#114 = LOCAL_TIME ( 11, 51, 9.000000000000000000, #113 ) ;
#115 = CALENDAR_DATE ( 2018, 28, 3 ) ;
#116 = DATE_AND_TIME ( #115, #114 ) ;
#117 = APPROVAL_DATE_TIME ( #116, #16 ) ;
#118 = PERSON_AND_ORGANIZATION ( #192, #157 ) ;
#119 = PERSON_AND_ORGANIZATION ( #192, #157 ) ;
#120 = SECURITY_CLASSIFICATION ( '', '', #266 ) ;
#121 = PERSON_AND_ORGANIZATION ( #192, #157 ) ;
#122 = COORDINATED_UNIVERSAL_TIME_OFFSET ( 3, 0, .BEHIND. ) ;
#123 = LOCAL_TIME ( 11, 51, 9.000000000000000000, #122 ) ;
#124 = CALENDAR_DATE ( 2018, 28, 3 ) ;
#125 = DATE_AND_TIME ( #124, #123 ) ;
#126 = PERSON_AND_ORGANIZATION ( #192, #157 ) ;
#127 = APPROVAL_PERSON_ORGANIZATION ( #126, #14, #270 ) ;
#128 = COORDINATED_UNIVERSAL_TIME_OFFSET ( 3, 0, .BEHIND. ) ;
#129 = LOCAL_TIME ( 11, 51, 9.000000000000000000, #128 ) ;
#130 = CALENDAR_DATE ( 2018, 28, 3 ) ;
#131 = DATE_AND_TIME ( #130, #129 ) ;
#132 = APPROVAL_DATE_TIME ( #131, #14 ) ;
#133 = PRODUCT ( 'A39-50', 'A39-50', '', ( #254 ) ) ;
#134 = LINE ( 'NONE', #238, #135 ) ;
#135 = VECTOR ( 'NONE', #237, 1000.000000000000000 ) ;
#136 = LINE ( 'NONE', #233, #137 ) ;
#137 = VECTOR ( 'NONE', #232, 1000.000000000000000 ) ;
#138 = LINE ( 'NONE', #226, #139 ) ;
#139 = VECTOR ( 'NONE', #228, 1000.000000000000000 ) ;
#140 = LINE ( 'NONE', #63, #141 ) ;
#141 = VECTOR ( 'NONE', #64, 1000.000000000000000 ) ;
#142 = LINE ( 'NONE', #65, #143 ) ;
#143 = VECTOR ( 'NONE', #66, 1000.000000000000000 ) ;
#144 = LINE ( 'NONE', #67, #145 ) ;
#145 = VECTOR ( 'NONE', #68, 1000.000000000000000 ) ;
#146 = LINE ( 'NONE', #69, #147 ) ;
#147 = VECTOR ( 'NONE', #70, 1000.000000000000000 ) ;
#148 = LINE ( 'NONE', #71, #149 ) ;
#149 = VECTOR ( 'NONE', #72, 1000.000000000000100 ) ;
#150 = LINE ( 'NONE', #73, #151 ) ;
#151 = VECTOR ( 'NONE', #74, 1000.000000000000100 ) ;
#152 = LINE ( 'NONE', #75, #153 ) ;
#153 = VECTOR ( 'NONE', #76, 1000.000000000000000 ) ;
#154 = FACE_OUTER_BOUND ( 'NONE', #306, .T. ) ;
#155 =( GEOMETRIC_REPRESENTATION_CONTEXT ( 3 ) GLOBAL_UNCERTAINTY_ASSIGNED_CONTEXT ( ( #359 ) ) GLOBAL_UNIT_ASSIGNED_CONTEXT ( ( #246, #247, #248 ) ) REPRESENTATION_CONTEXT ( 'NONE', 'WORKASPACE' ) );
#156 = SHAPE_DEFINITION_REPRESENTATION ( #163, #101 ) ;
#157 = ORGANIZATION ( 'UNSPECIFIED', 'UNSPECIFIED', '' ) ;
#158 = PERSON_AND_ORGANIZATION ( #192, #157 ) ;
#159 = PERSON_AND_ORGANIZATION ( #192, #157 ) ;
#160 = APPROVAL_PERSON_ORGANIZATION ( #159, #25, #259 ) ;
#161 = COORDINATED_UNIVERSAL_TIME_OFFSET ( 3, 0, .BEHIND. ) ;
#162 = DESIGN_CONTEXT ( 'detailed design', #256, 'design' ) ;
#163 = PRODUCT_DEFINITION_SHAPE ( 'NONE', 'NONE',  #19 ) ;
#164 = LINE ( 'NONE', #77, #165 ) ;
#165 = VECTOR ( 'NONE', #78, 1000.000000000000100 ) ;
#166 = FACE_OUTER_BOUND ( 'NONE', #304, .T. ) ;
#167 = FACE_OUTER_BOUND ( 'NONE', #310, .T. ) ;
#168 = FACE_OUTER_BOUND ( 'NONE', #332, .T. ) ;
#169 = FACE_OUTER_BOUND ( 'NONE', #307, .T. ) ;
#170 = FACE_OUTER_BOUND ( 'NONE', #311, .T. ) ;
#171 = FACE_OUTER_BOUND ( 'NONE', #308, .T. ) ;
#172 = FACE_OUTER_BOUND ( 'NONE', #305, .T. ) ;
#173 = FACE_OUTER_BOUND ( 'NONE', #309, .T. ) ;
#174 = FACE_OUTER_BOUND ( 'NONE', #333, .T. ) ;
#175 = CARTESIAN_POINT ( 'NONE',  ( 0.6905942891810676900, 0.9000000000000000200, 50.00000000000000000 ) ) ;
#176 = DIRECTION ( 'NONE',  ( -3.276123471175167400E-017, -1.000000000000000000, 0.0000000000000000000 ) ) ;
#177 = DIRECTION ( 'NONE',  ( 1.000000000000000000, -3.276123471175167400E-017, 0.0000000000000000000 ) ) ;
#178 = PLANE ( 'NONE',  #33 ) ;
#179 = PLANE ( 'NONE',  #34 ) ;
#180 = CARTESIAN_POINT ( 'NONE',  ( 7.309405710818933400, 0.8999999999999998000, 50.00000000000000000 ) ) ;
#181 = DIRECTION ( 'NONE',  ( 0.9659258262890689800, -0.2588190451025184100, 0.0000000000000000000 ) ) ;
#182 = DIRECTION ( 'NONE',  ( 0.2588190451025184100, 0.9659258262890689800, 0.0000000000000000000 ) ) ;
#183 = PLANE ( 'NONE',  #31 ) ;
#184 = CARTESIAN_POINT ( 'NONE',  ( -2.953514727882160100, 14.50000000000000200, 50.00000000000000000 ) ) ;
#185 = DIRECTION ( 'NONE',  ( -0.2588190451025180200, -0.9659258262890690900, 0.0000000000000000000 ) ) ;
#186 = DIRECTION ( 'NONE',  ( -0.9659258262890690900, -0.2588190451025179600, 0.0000000000000000000 ) ) ;
#187 = PLANE ( 'NONE',  #28 ) ;
#188 = CARTESIAN_POINT ( 'NONE',  ( -3.885263290251237000, 14.50000000000000200, 50.00000000000000000 ) ) ;
#189 = DIRECTION ( 'NONE',  ( 0.0000000000000000000, -1.000000000000000000, 0.0000000000000000000 ) ) ;
#190 = DIRECTION ( 'NONE',  ( 0.2588190451025179600, -0.9659258262890690900, 0.0000000000000000000 ) ) ;
#191 = DIRECTION ( 'NONE',  ( 0.0000000000000000000, -0.0000000000000000000, -1.000000000000000000 ) ) ;
#192 = PERSON ( 'UNSPECIFIED', 'UNSPECIFIED', 'UNSPECIFIED', ('UNSPECIFIED'), ('UNSPECIFIED'), ('UNSPECIFIED') ) ;
#193 = LINE ( 'NONE', #225, #194 ) ;
#194 = VECTOR ( 'NONE', #227, 1000.000000000000000 ) ;
#195 = LINE ( 'NONE', #234, #196 ) ;
#196 = VECTOR ( 'NONE', #240, 1000.000000000000000 ) ;
#197 = LINE ( 'NONE', #235, #198 ) ;
#198 = VECTOR ( 'NONE', #239, 1000.000000000000000 ) ;
#199 = LINE ( 'NONE', #236, #200 ) ;
#200 = VECTOR ( 'NONE', #229, 1000.000000000000000 ) ;
#201 = LINE ( 'NONE', #230, #202 ) ;
#202 = VECTOR ( 'NONE', #231, 1000.000000000000100 ) ;
#203 = LINE ( 'NONE', #286, #204 ) ;
#204 = VECTOR ( 'NONE', #288, 1000.000000000000000 ) ;
#205 = LINE ( 'NONE', #291, #206 ) ;
#206 = VECTOR ( 'NONE', #275, 1000.000000000000000 ) ;
#207 = LINE ( 'NONE', #271, #208 ) ;
#208 = VECTOR ( 'NONE', #283, 1000.000000000000000 ) ;
#209 = LINE ( 'NONE', #282, #210 ) ;
#210 = VECTOR ( 'NONE', #284, 1000.000000000000000 ) ;
#211 = LINE ( 'NONE', #301, #212 ) ;
#212 = VECTOR ( 'NONE', #281, 1000.000000000000000 ) ;
#213 = ORIENTED_EDGE ( 'NONE', *, *, #40, .F. ) ;
#214 = ORIENTED_EDGE ( 'NONE', *, *, #60, .T. ) ;
#215 = ORIENTED_EDGE ( 'NONE', *, *, #41, .T. ) ;
#216 = ORIENTED_EDGE ( 'NONE', *, *, #47, .F. ) ;
#217 = ORIENTED_EDGE ( 'NONE', *, *, #45, .F. ) ;
#218 = ORIENTED_EDGE ( 'NONE', *, *, #40, .T. ) ;
#219 = ORIENTED_EDGE ( 'NONE', *, *, #38, .T. ) ;
#220 = ORIENTED_EDGE ( 'NONE', *, *, #44, .F. ) ;
#221 = ORIENTED_EDGE ( 'NONE', *, *, #41, .F. ) ;
#222 = ORIENTED_EDGE ( 'NONE', *, *, #42, .T. ) ;
#223 = ORIENTED_EDGE ( 'NONE', *, *, #43, .T. ) ;
#224 = CARTESIAN_POINT ( 'NONE',  ( 7.309405710818933400, 0.8999999999999998000, 0.0000000000000000000 ) ) ;
#225 = CARTESIAN_POINT ( 'NONE',  ( 10.95351472788216700, 14.50000000000000200, 50.00000000000000000 ) ) ;
#226 = CARTESIAN_POINT ( 'NONE',  ( 0.6905942891810676900, 0.9000000000000000200, 50.00000000000000000 ) ) ;
#227 = DIRECTION ( 'NONE',  ( -0.0000000000000000000, -0.0000000000000000000, -1.000000000000000000 ) ) ;
#228 = DIRECTION ( 'NONE',  ( -1.000000000000000000, 3.276123471175167400E-017, -0.0000000000000000000 ) ) ;
#229 = DIRECTION ( 'NONE',  ( -0.2588190451025179600, 0.9659258262890690900, -0.0000000000000000000 ) ) ;
#230 = CARTESIAN_POINT ( 'NONE',  ( 7.309405710818933400, 0.8999999999999998000, 50.00000000000000000 ) ) ;
#231 = DIRECTION ( 'NONE',  ( -0.2588190451025184100, -0.9659258262890689800, -0.0000000000000000000 ) ) ;
#232 = DIRECTION ( 'NONE',  ( -0.0000000000000000000, -0.0000000000000000000, -1.000000000000000000 ) ) ;
#233 = CARTESIAN_POINT ( 'NONE',  ( 0.6905942891810676900, 0.9000000000000000200, 50.00000000000000000 ) ) ;
#234 = CARTESIAN_POINT ( 'NONE',  ( 7.309405710818933400, 0.8999999999999998000, 50.00000000000000000 ) ) ;
#235 = CARTESIAN_POINT ( 'NONE',  ( 10.95351472788216700, 14.50000000000000200, 50.00000000000000000 ) ) ;
#236 = CARTESIAN_POINT ( 'NONE',  ( -2.953514727882160100, 14.50000000000000200, 0.0000000000000000000 ) ) ;
#237 = DIRECTION ( 'NONE',  ( -1.000000000000000000, 3.276123471175167400E-017, -0.0000000000000000000 ) ) ;
#238 = CARTESIAN_POINT ( 'NONE',  ( 0.6905942891810676900, 0.9000000000000000200, 0.0000000000000000000 ) ) ;
#239 = DIRECTION ( 'NONE',  ( -1.000000000000000000, -1.861793563239946800E-015, -0.0000000000000000000 ) ) ;
#240 = DIRECTION ( 'NONE',  ( -0.0000000000000000000, -0.0000000000000000000, -1.000000000000000000 ) ) ;
#241 = ORIENTED_EDGE ( 'NONE', *, *, #55, .T. ) ;
#242 = CARTESIAN_POINT ( 'NONE',  ( 10.95351472788216700, 14.50000000000000200, 50.00000000000000000 ) ) ;
#243 = CARTESIAN_POINT ( 'NONE',  ( 11.88526329025123700, 14.50000000000000400, 0.0000000000000000000 ) ) ;
#244 = CARTESIAN_POINT ( 'NONE',  ( 8.000000000000000000, -2.195599280053263200E-015, 50.00000000000000000 ) ) ;
#245 = CARTESIAN_POINT ( 'NONE',  ( 0.0000000000000000000, 0.0000000000000000000, 0.0000000000000000000 ) ) ;
#246 =( LENGTH_UNIT ( ) NAMED_UNIT ( * ) SI_UNIT ( .MILLI., .METRE. ) );
#247 =( NAMED_UNIT ( * ) PLANE_ANGLE_UNIT ( ) SI_UNIT ( $, .RADIAN. ) );
#248 =( NAMED_UNIT ( * ) SI_UNIT ( $, .STERADIAN. ) SOLID_ANGLE_UNIT ( ) );
#249 = CARTESIAN_POINT ( 'NONE',  ( 0.0000000000000000000, 0.0000000000000000000, 0.0000000000000000000 ) ) ;
#250 = DIRECTION ( 'NONE',  ( 0.0000000000000000000, 0.0000000000000000000, 1.000000000000000000 ) ) ;
#251 = DIRECTION ( 'NONE',  ( 1.000000000000000000, 0.0000000000000000000, 0.0000000000000000000 ) ) ;
#252 = APPLICATION_CONTEXT ( 'configuration controlled 3d designs of mechanical parts and assemblies' ) ;
#253 = APPLICATION_PROTOCOL_DEFINITION ( 'international standard', 'config_control_design', 1994, #252 ) ;
#254 = MECHANICAL_CONTEXT ( 'NONE', #252, 'mechanical' ) ;
#255 = PERSON_AND_ORGANIZATION_ROLE ( 'design_owner' ) ;
#256 = APPLICATION_CONTEXT ( 'configuration controlled 3d designs of mechanical parts and assemblies' ) ;
#257 = APPLICATION_PROTOCOL_DEFINITION ( 'international standard', 'config_control_design', 1994, #256 ) ;
#258 = APPROVAL_STATUS ( 'not_yet_approved' ) ;
#259 = APPROVAL_ROLE ( '' ) ;
#260 = PERSON_AND_ORGANIZATION_ROLE ( 'creator' ) ;
#261 = DATE_TIME_ROLE ( 'creation_date' ) ;
#262 = APPROVAL_STATUS ( 'not_yet_approved' ) ;
#263 = APPROVAL_ROLE ( '' ) ;
#264 = PERSON_AND_ORGANIZATION_ROLE ( 'creator' ) ;
#265 = PERSON_AND_ORGANIZATION_ROLE ( 'design_supplier' ) ;
#266 = SECURITY_CLASSIFICATION_LEVEL ( 'unclassified' ) ;
#267 = PERSON_AND_ORGANIZATION_ROLE ( 'classification_officer' ) ;
#268 = DATE_TIME_ROLE ( 'classification_date' ) ;
#269 = APPROVAL_STATUS ( 'not_yet_approved' ) ;
#270 = APPROVAL_ROLE ( '' ) ;
#271 = CARTESIAN_POINT ( 'NONE',  ( 11.88526329025123700, 14.50000000000000400, 0.0000000000000000000 ) ) ;
#272 = VERTEX_POINT ( 'NONE', #346 ) ;
#273 = VERTEX_POINT ( 'NONE', #335 ) ;
#274 = CARTESIAN_POINT ( 'NONE',  ( 8.000000000000000000, -2.195599280053263200E-015, 0.0000000000000000000 ) ) ;
#275 = DIRECTION ( 'NONE',  ( -0.0000000000000000000, -0.0000000000000000000, -1.000000000000000000 ) ) ;
#276 = VERTEX_POINT ( 'NONE', #338 ) ;
#277 = VERTEX_POINT ( 'NONE', #350 ) ;
#278 = CARTESIAN_POINT ( 'NONE',  ( 8.000000000000000000, -2.195599280053263200E-015, 50.00000000000000000 ) ) ;
#279 = DIRECTION ( 'NONE',  ( -0.0000000000000000000, -0.0000000000000000000, -1.000000000000000000 ) ) ;
#280 = VERTEX_POINT ( 'NONE', #340 ) ;
#281 = DIRECTION ( 'NONE',  ( 0.2588190451025180200, 0.9659258262890690900, -0.0000000000000000000 ) ) ;
#282 = CARTESIAN_POINT ( 'NONE',  ( 0.0000000000000000000, 0.0000000000000000000, 50.00000000000000000 ) ) ;
#283 = DIRECTION ( 'NONE',  ( 0.2588190451025180200, 0.9659258262890690900, -0.0000000000000000000 ) ) ;
#284 = DIRECTION ( 'NONE',  ( -0.0000000000000000000, -0.0000000000000000000, -1.000000000000000000 ) ) ;
#285 = VERTEX_POINT ( 'NONE', #347 ) ;
#286 = CARTESIAN_POINT ( 'NONE',  ( 10.95351472788216700, 14.50000000000000200, 0.0000000000000000000 ) ) ;
#287 = DIRECTION ( 'NONE',  ( 1.000000000000000000, -2.744499100066579100E-016, -0.0000000000000000000 ) ) ;
#288 = DIRECTION ( 'NONE',  ( -1.000000000000000000, -1.861793563239946800E-015, -0.0000000000000000000 ) ) ;
#289 = DIRECTION ( 'NONE',  ( 1.000000000000000000, -2.744499100066579100E-016, -0.0000000000000000000 ) ) ;
#290 = VERTEX_POINT ( 'NONE', #353 ) ;
#291 = CARTESIAN_POINT ( 'NONE',  ( 11.88526329025123700, 14.50000000000000400, 50.00000000000000000 ) ) ;
#292 = CARTESIAN_POINT ( 'NONE',  ( 8.000000000000000000, -2.195599280053263200E-015, 50.00000000000000000 ) ) ;
#293 = VERTEX_POINT ( 'NONE', #355 ) ;
#294 = VERTEX_POINT ( 'NONE', #357 ) ;
#295 = VERTEX_POINT ( 'NONE', #356 ) ;
#296 = VERTEX_POINT ( 'NONE', #354 ) ;
#297 = VERTEX_POINT ( 'NONE', #224 ) ;
#298 = VERTEX_POINT ( 'NONE', #242 ) ;
#299 = VERTEX_POINT ( 'NONE', #243 ) ;
#300 = VERTEX_POINT ( 'NONE', #244 ) ;
#301 = CARTESIAN_POINT ( 'NONE',  ( 11.88526329025123700, 14.50000000000000400, 50.00000000000000000 ) ) ;
#302 = VERTEX_POINT ( 'NONE', #245 ) ;
#303 = ORIENTED_EDGE ( 'NONE', *, *, #60, .F. ) ;
#304 = EDGE_LOOP ( 'NONE', ( #218, #217, #216, #215 ) ) ;
#305 = EDGE_LOOP ( 'NONE', ( #326, #327, #328, #329 ) ) ;
#306 = EDGE_LOOP ( 'NONE', ( #9, #10, #314, #315, #316, #303, #213, #334 ) ) ;
#307 = EDGE_LOOP ( 'NONE', ( #318, #319, #320, #321 ) ) ;
#308 = EDGE_LOOP ( 'NONE', ( #322, #323, #324, #325 ) ) ;
#309 = EDGE_LOOP ( 'NONE', ( #330, #331, #358, #241 ) ) ;
#310 = EDGE_LOOP ( 'NONE', ( #363, #361, #362, #223 ) ) ;
#311 = EDGE_LOOP ( 'NONE', ( #214, #313, #312, #317 ) ) ;
#312 = ORIENTED_EDGE ( 'NONE', *, *, #49, .F. ) ;
#313 = ORIENTED_EDGE ( 'NONE', *, *, #46, .F. ) ;
#314 = ORIENTED_EDGE ( 'NONE', *, *, #56, .F. ) ;
#315 = ORIENTED_EDGE ( 'NONE', *, *, #48, .F. ) ;
#316 = ORIENTED_EDGE ( 'NONE', *, *, #50, .F. ) ;
#317 = ORIENTED_EDGE ( 'NONE', *, *, #45, .T. ) ;
#318 = ORIENTED_EDGE ( 'NONE', *, *, #50, .T. ) ;
#319 = ORIENTED_EDGE ( 'NONE', *, *, #51, .F. ) ;
#320 = ORIENTED_EDGE ( 'NONE', *, *, #52, .F. ) ;
#321 = ORIENTED_EDGE ( 'NONE', *, *, #46, .T. ) ;
#322 = ORIENTED_EDGE ( 'NONE', *, *, #48, .T. ) ;
#323 = ORIENTED_EDGE ( 'NONE', *, *, #53, .F. ) ;
#324 = ORIENTED_EDGE ( 'NONE', *, *, #54, .F. ) ;
#325 = ORIENTED_EDGE ( 'NONE', *, *, #51, .T. ) ;
#326 = ORIENTED_EDGE ( 'NONE', *, *, #56, .T. ) ;
#327 = ORIENTED_EDGE ( 'NONE', *, *, #55, .F. ) ;
#328 = ORIENTED_EDGE ( 'NONE', *, *, #59, .F. ) ;
#329 = ORIENTED_EDGE ( 'NONE', *, *, #53, .T. ) ;
#330 = ORIENTED_EDGE ( 'NONE', *, *, #57, .T. ) ;
#331 = ORIENTED_EDGE ( 'NONE', *, *, #43, .F. ) ;
#332 = EDGE_LOOP ( 'NONE', ( #222, #221, #220, #219 ) ) ;
#333 = EDGE_LOOP ( 'NONE', ( #1, #2, #3, #4, #5, #6, #7, #8 ) ) ;
#334 = ORIENTED_EDGE ( 'NONE', *, *, #42, .F. ) ;
#335 = CARTESIAN_POINT ( 'NONE',  ( -2.953514727882160100, 14.50000000000000200, 50.00000000000000000 ) ) ;
#336 = DIRECTION ( 'NONE',  ( 0.9659258262890689800, 0.2588190451025181300, -0.0000000000000000000 ) ) ;
#337 = PLANE ( 'NONE',  #30 ) ;
#338 = CARTESIAN_POINT ( 'NONE',  ( 0.6905942891810676900, 0.9000000000000000200, 0.0000000000000000000 ) ) ;
#339 = DIRECTION ( 'NONE',  ( -0.2588190451025181300, 0.9659258262890689800, 0.0000000000000000000 ) ) ;
#340 = CARTESIAN_POINT ( 'NONE',  ( -3.885263290251237000, 14.50000000000000200, 50.00000000000000000 ) ) ;
#341 = PLANE ( 'NONE',  #29 ) ;
#342 = PLANE ( 'NONE',  #24 ) ;
#343 = DIRECTION ( 'NONE',  ( 1.000000000000000000, 0.0000000000000000000, -0.0000000000000000000 ) ) ;
#344 = CARTESIAN_POINT ( 'NONE',  ( 8.000000000000000000, -3.469446951953614200E-015, 50.00000000000000000 ) ) ;
#345 = DIRECTION ( 'NONE',  ( 0.0000000000000000000, 0.0000000000000000000, 1.000000000000000000 ) ) ;
#346 = CARTESIAN_POINT ( 'NONE',  ( 11.88526329025123700, 14.50000000000000400, 50.00000000000000000 ) ) ;
#347 = CARTESIAN_POINT ( 'NONE',  ( -3.885263290251237000, 14.50000000000000200, 0.0000000000000000000 ) ) ;
#348 = DIRECTION ( 'NONE',  ( 1.000000000000000000, 0.0000000000000000000, -0.0000000000000000000 ) ) ;
#349 = CARTESIAN_POINT ( 'NONE',  ( 8.000000000000000000, -3.469446951953614200E-015, 0.0000000000000000000 ) ) ;
#350 = CARTESIAN_POINT ( 'NONE',  ( 0.6905942891810676900, 0.9000000000000000200, 50.00000000000000000 ) ) ;
#351 = DIRECTION ( 'NONE',  ( 0.0000000000000000000, 0.0000000000000000000, 1.000000000000000000 ) ) ;
#352 = CARTESIAN_POINT ( 'NONE',  ( 0.0000000000000000000, 0.0000000000000000000, 50.00000000000000000 ) ) ;
#353 = CARTESIAN_POINT ( 'NONE',  ( 10.95351472788216700, 14.50000000000000200, 0.0000000000000000000 ) ) ;
#354 = CARTESIAN_POINT ( 'NONE',  ( 8.000000000000000000, -2.195599280053263200E-015, 0.0000000000000000000 ) ) ;
#355 = CARTESIAN_POINT ( 'NONE',  ( -2.953514727882160100, 14.50000000000000200, 0.0000000000000000000 ) ) ;
#356 = CARTESIAN_POINT ( 'NONE',  ( 0.0000000000000000000, 0.0000000000000000000, 50.00000000000000000 ) ) ;
#357 = CARTESIAN_POINT ( 'NONE',  ( 7.309405710818933400, 0.8999999999999998000, 50.00000000000000000 ) ) ;
#358 = ORIENTED_EDGE ( 'NONE', *, *, #58, .F. ) ;
#359 = UNCERTAINTY_MEASURE_WITH_UNIT (LENGTH_MEASURE( 1.000000000000000100E-005 ), #246, 'distance_accuracy_value', 'NONE');
#360 = CLOSED_SHELL ( 'NONE', ( #91, #92, #90, #94, #93, #95, #96, #97, #98, #99 ) ) ;
#361 = ORIENTED_EDGE ( 'NONE', *, *, #38, .F. ) ;
#362 = ORIENTED_EDGE ( 'NONE', *, *, #39, .F. ) ;
#363 = ORIENTED_EDGE ( 'NONE', *, *, #37, .T. ) ;
#364 = LINE ( 'NONE', #274, #365 ) ;
#365 = VECTOR ( 'NONE', #289, 1000.000000000000000 ) ;
#366 = LINE ( 'NONE', #292, #367 ) ;
#367 = VECTOR ( 'NONE', #279, 1000.000000000000000 ) ;
#368 = LINE ( 'NONE', #278, #369 ) ;
#369 = VECTOR ( 'NONE', #287, 1000.000000000000000 ) ;
ENDSEC;
END-ISO-10303-21;
