ISO-10303-21;
HEADER;
FILE_DESCRIPTION (( 'STEP AP203' ),
    '1' );
FILE_NAME ('L16-20.STEP',
    '2018-04-02T14:04:02',
    ( 'User2' ),
    ( '' ),
    'SwSTEP 2.0',
    'SolidWorks 2007',
    '' );
FILE_SCHEMA (( 'CONFIG_CONTROL_DESIGN' ));
ENDSEC;

DATA;
#1 = DIRECTION ( 'NONE',  ( 1.000000000000000000, 0.0000000000000000000, 0.0000000000000000000 ) ) ;
#2 = DIRECTION ( 'NONE',  ( -0.0000000000000000000, -0.0000000000000000000, 1.000000000000000000 ) ) ;
#3 = DIRECTION ( 'NONE',  ( -1.000000000000000000, 0.0000000000000000000, 0.0000000000000000000 ) ) ;
#4 = CARTESIAN_POINT ( 'NONE',  ( -8.000000000000000000, 9.797174393178825700E-016, -1000.000000000000000 ) ) ;
#5 = CARTESIAN_POINT ( 'NONE',  ( 8.000000000000000000, 0.0000000000000000000, -999.5000000000000000 ) ) ;
#6 = DIRECTION ( 'NONE',  ( 0.7071067811866211800, 0.0000000000000000000, 0.7071067811864739600 ) ) ;
#7 = VERTEX_POINT ( 'NONE', #29 ) ;
#8 = DIRECTION ( 'NONE',  ( -0.0000000000000000000, -0.0000000000000000000, -1.000000000000000000 ) ) ;
#9 = CARTESIAN_POINT ( 'NONE',  ( 0.0000000000000000000, 0.0000000000000000000, -999.5000000000000000 ) ) ;
#10 = CARTESIAN_POINT ( 'NONE',  ( 0.0000000000000000000, 0.0000000000000000000, 0.0000000000000000000 ) ) ;
#11 = CARTESIAN_POINT ( 'NONE',  ( -8.000000000000000000, 9.797174393178825700E-016, -999.5000000000000000 ) ) ;
#12 = DIRECTION ( 'NONE',  ( 1.000000000000000000, 0.0000000000000000000, 0.0000000000000000000 ) ) ;
#13 = DIRECTION ( 'NONE',  ( 0.0000000000000000000, 0.0000000000000000000, 1.000000000000000000 ) ) ;
#14 = DIRECTION ( 'NONE',  ( 0.7071067811865426900, 8.659560562354873700E-017, -0.7071067811865524600 ) ) ;
#15 = DIRECTION ( 'NONE',  ( -0.0000000000000000000, -0.0000000000000000000, 1.000000000000000000 ) ) ;
#16 = DIRECTION ( 'NONE',  ( -1.000000000000000000, 0.0000000000000000000, 0.0000000000000000000 ) ) ;
#17 = DIRECTION ( 'NONE',  ( 1.000000000000000000, 0.0000000000000000000, -0.0000000000000000000 ) ) ;
#18 = CARTESIAN_POINT ( 'NONE',  ( 0.0000000000000000000, 0.0000000000000000000, 0.0000000000000000000 ) ) ;
#19 = DIRECTION ( 'NONE',  ( 0.0000000000000000000, 0.0000000000000000000, -1.000000000000000000 ) ) ;
#20 = DIRECTION ( 'NONE',  ( -0.7071067811865426900, 0.0000000000000000000, -0.7071067811865524600 ) ) ;
#21 = CARTESIAN_POINT ( 'NONE',  ( 7.499999999999951200, 9.491012693391956200E-016, 0.0000000000000000000 ) ) ;
#22 = CARTESIAN_POINT ( 'NONE',  ( 8.000000000000000000, 0.0000000000000000000, -1000.000000000000000 ) ) ;
#23 = DIRECTION ( 'NONE',  ( 0.0000000000000000000, 0.0000000000000000000, 1.000000000000000000 ) ) ;
#24 = PLANE ( 'NONE',  #208 ) ;
#25 = VERTEX_POINT ( 'NONE', #27 ) ;
#26 = CARTESIAN_POINT ( 'NONE',  ( -8.000000000000000000, 9.797174393178825700E-016, -0.5000000000000559600 ) ) ;
#27 = CARTESIAN_POINT ( 'NONE',  ( 8.000000000000000000, 0.0000000000000000000, -999.5000000000000000 ) ) ;
#28 = CARTESIAN_POINT ( 'NONE',  ( 0.0000000000000000000, 0.0000000000000000000, -0.5000000000000559600 ) ) ;
#29 = CARTESIAN_POINT ( 'NONE',  ( 7.499999999999951200, 0.0000000000000000000, -1000.000000000000000 ) ) ;
#30 = VERTEX_POINT ( 'NONE', #21 ) ;
#31 = CARTESIAN_POINT ( 'NONE',  ( 0.0000000000000000000, 0.0000000000000000000, -1000.000000000000000 ) ) ;
#32 = DIRECTION ( 'NONE',  ( 0.0000000000000000000, 0.0000000000000000000, 1.000000000000000000 ) ) ;
#33 = DIRECTION ( 'NONE',  ( -0.7071067811866211800, 8.659560562355835100E-017, 0.7071067811864739600 ) ) ;
#34 = CARTESIAN_POINT ( 'NONE',  ( 0.0000000000000000000, 0.0000000000000000000, 0.0000000000000000000 ) ) ;
#35 = DIRECTION ( 'NONE',  ( 0.0000000000000000000, 0.0000000000000000000, 1.000000000000000000 ) ) ;
#36 = DIRECTION ( 'NONE',  ( 0.0000000000000000000, 0.0000000000000000000, -1.000000000000000000 ) ) ;
#37 = PLANE ( 'NONE',  #210 ) ;
#38 = DIRECTION ( 'NONE',  ( 1.000000000000000000, 0.0000000000000000000, 0.0000000000000000000 ) ) ;
#39 = CARTESIAN_POINT ( 'NONE',  ( 0.0000000000000000000, 0.0000000000000000000, -1000.000000000000000 ) ) ;
#40 = CARTESIAN_POINT ( 'NONE',  ( 7.499999999999951200, 9.184850993605088800E-016, 0.0000000000000000000 ) ) ;
#41 = VERTEX_POINT ( 'NONE', #26 ) ;
#42 = CARTESIAN_POINT ( 'NONE',  ( 0.0000000000000000000, 0.0000000000000000000, -999.5000000000000000 ) ) ;
#43 = CARTESIAN_POINT ( 'NONE',  ( 0.0000000000000000000, 0.0000000000000000000, -1000.000000000000000 ) ) ;
#44 = VERTEX_POINT ( 'NONE', #61 ) ;
#45 = VERTEX_POINT ( 'NONE', #67 ) ;
#46 = VERTEX_POINT ( 'NONE', #58 ) ;
#47 = DIRECTION ( 'NONE',  ( 1.000000000000000000, 0.0000000000000000000, 0.0000000000000000000 ) ) ;
#48 = DIRECTION ( 'NONE',  ( 1.000000000000000000, 0.0000000000000000000, -0.0000000000000000000 ) ) ;
#49 = DIRECTION ( 'NONE',  ( 1.000000000000000000, 0.0000000000000000000, 0.0000000000000000000 ) ) ;
#50 = DIRECTION ( 'NONE',  ( -0.0000000000000000000, -0.0000000000000000000, 1.000000000000000000 ) ) ;
#51 = DIRECTION ( 'NONE',  ( 0.0000000000000000000, 0.0000000000000000000, 1.000000000000000000 ) ) ;
#52 = DIRECTION ( 'NONE',  ( 1.000000000000000000, 0.0000000000000000000, 0.0000000000000000000 ) ) ;
#53 = CARTESIAN_POINT ( 'NONE',  ( 0.0000000000000000000, 0.0000000000000000000, 0.0000000000000000000 ) ) ;
#54 = VERTEX_POINT ( 'NONE', #55 ) ;
#55 = CARTESIAN_POINT ( 'NONE',  ( -7.499999999999951200, 9.491012693391956200E-016, -1000.000000000000000 ) ) ;
#56 = CARTESIAN_POINT ( 'NONE',  ( 0.0000000000000000000, 0.0000000000000000000, -1000.000000000000000 ) ) ;
#57 = DIRECTION ( 'NONE',  ( 0.0000000000000000000, 0.0000000000000000000, 1.000000000000000000 ) ) ;
#58 = CARTESIAN_POINT ( 'NONE',  ( 8.000000000000000000, 0.0000000000000000000, -0.5000000000000559600 ) ) ;
#59 = DIRECTION ( 'NONE',  ( -0.0000000000000000000, -0.0000000000000000000, 1.000000000000000000 ) ) ;
#60 = CARTESIAN_POINT ( 'NONE',  ( 0.0000000000000000000, 0.0000000000000000000, -999.5000000000000000 ) ) ;
#61 = CARTESIAN_POINT ( 'NONE',  ( -8.000000000000000000, 9.797174393178825700E-016, -999.5000000000000000 ) ) ;
#62 = DIRECTION ( 'NONE',  ( 1.000000000000000000, 0.0000000000000000000, 0.0000000000000000000 ) ) ;
#63 = DIRECTION ( 'NONE',  ( 0.0000000000000000000, 0.0000000000000000000, 1.000000000000000000 ) ) ;
#64 = DIRECTION ( 'NONE',  ( 1.000000000000000000, 0.0000000000000000000, 0.0000000000000000000 ) ) ;
#65 = CARTESIAN_POINT ( 'NONE',  ( 0.0000000000000000000, 0.0000000000000000000, -999.5000000000000000 ) ) ;
#66 = DIRECTION ( 'NONE',  ( 0.0000000000000000000, 0.0000000000000000000, -1.000000000000000000 ) ) ;
#67 = CARTESIAN_POINT ( 'NONE',  ( -7.499999999999951200, 0.0000000000000000000, 0.0000000000000000000 ) ) ;
#68 = CARTESIAN_POINT ( 'NONE',  ( -7.499999999999951200, 0.0000000000000000000, 0.0000000000000000000 ) ) ;
#69 = PERSON ( 'UNSPECIFIED', 'UNSPECIFIED', 'UNSPECIFIED', ('UNSPECIFIED'), ('UNSPECIFIED'), ('UNSPECIFIED') ) ;
#70 = PRODUCT ( 'L16-20', 'L16-20', '', ( #175 ) ) ;
#71 = ORIENTED_EDGE ( 'NONE', *, *, #223, .T. ) ;
#72 = ORIENTED_EDGE ( 'NONE', *, *, #221, .F. ) ;
#73 = ORIENTED_EDGE ( 'NONE', *, *, #182, .F. ) ;
#74 = ORIENTED_EDGE ( 'NONE', *, *, #223, .F. ) ;
#75 = ORIENTED_EDGE ( 'NONE', *, *, #205, .T. ) ;
#76 = ORIENTED_EDGE ( 'NONE', *, *, #197, .T. ) ;
#77 = FACE_OUTER_BOUND ( 'NONE', #97, .T. ) ;
#78 = ORIENTED_EDGE ( 'NONE', *, *, #188, .F. ) ;
#79 = ORIENTED_EDGE ( 'NONE', *, *, #198, .F. ) ;
#80 = CIRCLE ( 'NONE', #215, 8.000000000000000000 ) ;
#81 = LINE ( 'NONE', #5, #103 ) ;
#82 = EDGE_LOOP ( 'NONE', ( #120, #115 ) ) ;
#83 = ORIENTED_EDGE ( 'NONE', *, *, #178, .F. ) ;
#84 = ORIENTED_EDGE ( 'NONE', *, *, #213, .F. ) ;
#85 = ORIENTED_EDGE ( 'NONE', *, *, #196, .T. ) ;
#86 = EDGE_LOOP ( 'NONE', ( #118, #114, #127, #84 ) ) ;
#87 = ORIENTED_EDGE ( 'NONE', *, *, #192, .T. ) ;
#88 = EDGE_LOOP ( 'NONE', ( #122, #126, #85, #79 ) ) ;
#89 = EDGE_LOOP ( 'NONE', ( #117, #75, #83, #78 ) ) ;
#90 = ORIENTED_EDGE ( 'NONE', *, *, #201, .F. ) ;
#91 = ORIENTED_EDGE ( 'NONE', *, *, #188, .T. ) ;
#92 = ORIENTED_EDGE ( 'NONE', *, *, #197, .F. ) ;
#93 = EDGE_LOOP ( 'NONE', ( #71, #116 ) ) ;
#94 = EDGE_LOOP ( 'NONE', ( #72, #87, #98, #73 ) ) ;
#95 = EDGE_LOOP ( 'NONE', ( #119, #74, #91, #92 ) ) ;
#96 = CLOSED_SHELL ( 'NONE', ( #139, #134, #130, #135, #133, #136, #132, #138 ) ) ;
#97 = EDGE_LOOP ( 'NONE', ( #90, #76, #106, #128 ) ) ;
#98 = ORIENTED_EDGE ( 'NONE', *, *, #196, .F. ) ;
#99 = CIRCLE ( 'NONE', #183, 7.499999999999951200 ) ;
#100 = FACE_OUTER_BOUND ( 'NONE', #82, .T. ) ;
#101 = LINE ( 'NONE', #40, #228 ) ;
#102 = VECTOR ( 'NONE', #20, 1000.000000000000000 ) ;
#103 = VECTOR ( 'NONE', #6, 1000.000000000000100 ) ;
#104 = FACE_OUTER_BOUND ( 'NONE', #88, .T. ) ;
#105 = LINE ( 'NONE', #68, #102 ) ;
#106 = ORIENTED_EDGE ( 'NONE', *, *, #198, .T. ) ;
#107 = CONICAL_SURFACE ( 'NONE', #216, 7.499999999999951200, 0.7853981633974415100 ) ;
#108 = FACE_OUTER_BOUND ( 'NONE', #86, .T. ) ;
#109 = FACE_OUTER_BOUND ( 'NONE', #94, .T. ) ;
#110 = CYLINDRICAL_SURFACE ( 'NONE', #214, 8.000000000000000000 ) ;
#111 = CONICAL_SURFACE ( 'NONE', #222, 7.499999999999951200, 0.7853981633974415100 ) ;
#112 = CYLINDRICAL_SURFACE ( 'NONE', #212, 8.000000000000000000 ) ;
#113 = CONICAL_SURFACE ( 'NONE', #179, 8.000000000000000000, 0.7853981633975524200 ) ;
#114 = ORIENTED_EDGE ( 'NONE', *, *, #209, .F. ) ;
#115 = ORIENTED_EDGE ( 'NONE', *, *, #221, .T. ) ;
#116 = ORIENTED_EDGE ( 'NONE', *, *, #190, .T. ) ;
#117 = ORIENTED_EDGE ( 'NONE', *, *, #190, .F. ) ;
#118 = ORIENTED_EDGE ( 'NONE', *, *, #192, .F. ) ;
#119 = ORIENTED_EDGE ( 'NONE', *, *, #205, .F. ) ;
#120 = ORIENTED_EDGE ( 'NONE', *, *, #209, .T. ) ;
#121 = CONICAL_SURFACE ( 'NONE', #217, 8.000000000000000000, 0.7853981633975524200 ) ;
#122 = ORIENTED_EDGE ( 'NONE', *, *, #178, .T. ) ;
#123 = FACE_OUTER_BOUND ( 'NONE', #93, .T. ) ;
#124 = FACE_OUTER_BOUND ( 'NONE', #95, .T. ) ;
#125 = FACE_OUTER_BOUND ( 'NONE', #89, .T. ) ;
#126 = ORIENTED_EDGE ( 'NONE', *, *, #201, .T. ) ;
#127 = ORIENTED_EDGE ( 'NONE', *, *, #182, .T. ) ;
#128 = ORIENTED_EDGE ( 'NONE', *, *, #213, .T. ) ;
#129 = UNCERTAINTY_MEASURE_WITH_UNIT (LENGTH_MEASURE( 1.000000000000000100E-005 ), #154, 'distance_accuracy_value', 'NONE');
#130 = ADVANCED_FACE ( 'NONE', ( #104 ), #112, .T. ) ;
#131 = ADVANCED_BREP_SHAPE_REPRESENTATION ( 'L16-20', ( #137, #184 ), #271 ) ;
#132 = ADVANCED_FACE ( 'NONE', ( #124 ), #113, .T. ) ;
#133 = ADVANCED_FACE ( 'NONE', ( #123 ), #24, .F. ) ;
#134 = ADVANCED_FACE ( 'NONE', ( #125 ), #121, .T. ) ;
#135 = ADVANCED_FACE ( 'NONE', ( #77 ), #110, .T. ) ;
#136 = ADVANCED_FACE ( 'NONE', ( #100 ), #37, .T. ) ;
#137 = MANIFOLD_SOLID_BREP ( 'NONE', #96 ) ;
#138 = ADVANCED_FACE ( 'NONE', ( #108 ), #107, .T. ) ;
#139 = ADVANCED_FACE ( 'NONE', ( #109 ), #111, .T. ) ;
#140 = DESIGN_CONTEXT ( 'detailed design', #155, 'design' ) ;
#141 = PRODUCT_DEFINITION_SHAPE ( 'NONE', 'NONE',  #224 ) ;
#142 = DIRECTION ( 'NONE',  ( 0.0000000000000000000, 0.0000000000000000000, 1.000000000000000000 ) ) ;
#143 = DATE_TIME_ROLE ( 'creation_date' ) ;
#144 = SECURITY_CLASSIFICATION_LEVEL ( 'unclassified' ) ;
#145 = DIRECTION ( 'NONE',  ( 1.000000000000000000, 0.0000000000000000000, 0.0000000000000000000 ) ) ;
#146 = PERSON_AND_ORGANIZATION_ROLE ( 'classification_officer' ) ;
#147 = DIRECTION ( 'NONE',  ( 0.0000000000000000000, 0.0000000000000000000, 1.000000000000000000 ) ) ;
#148 = APPROVAL_ROLE ( '' ) ;
#149 = CARTESIAN_POINT ( 'NONE',  ( 0.0000000000000000000, 0.0000000000000000000, -0.5000000000000559600 ) ) ;
#150 = DIRECTION ( 'NONE',  ( 1.000000000000000000, 0.0000000000000000000, 0.0000000000000000000 ) ) ;
#151 = CARTESIAN_POINT ( 'NONE',  ( 0.0000000000000000000, 0.0000000000000000000, 0.0000000000000000000 ) ) ;
#152 = DIRECTION ( 'NONE',  ( 1.000000000000000000, 0.0000000000000000000, 0.0000000000000000000 ) ) ;
#153 = DIRECTION ( 'NONE',  ( -0.0000000000000000000, -0.0000000000000000000, -1.000000000000000000 ) ) ;
#154 =( LENGTH_UNIT ( ) NAMED_UNIT ( * ) SI_UNIT ( .MILLI., .METRE. ) );
#155 = APPLICATION_CONTEXT ( 'configuration controlled 3d designs of mechanical parts and assemblies' ) ;
#156 = APPROVAL_STATUS ( 'not_yet_approved' ) ;
#157 = DATE_TIME_ROLE ( 'classification_date' ) ;
#158 = APPLICATION_PROTOCOL_DEFINITION ( 'international standard', 'config_control_design', 1994, #155 ) ;
#159 = APPROVAL_ROLE ( '' ) ;
#160 =( NAMED_UNIT ( * ) SI_UNIT ( $, .STERADIAN. ) SOLID_ANGLE_UNIT ( ) );
#161 = PERSON_AND_ORGANIZATION_ROLE ( 'creator' ) ;
#162 = APPLICATION_PROTOCOL_DEFINITION ( 'international standard', 'config_control_design', 1994, #170 ) ;
#163 = APPROVAL_ROLE ( '' ) ;
#164 = DIRECTION ( 'NONE',  ( 1.000000000000000000, 0.0000000000000000000, 0.0000000000000000000 ) ) ;
#165 = PERSON_AND_ORGANIZATION_ROLE ( 'design_supplier' ) ;
#166 = DIRECTION ( 'NONE',  ( 1.000000000000000000, 0.0000000000000000000, 0.0000000000000000000 ) ) ;
#167 = APPROVAL_STATUS ( 'not_yet_approved' ) ;
#168 = CARTESIAN_POINT ( 'NONE',  ( 0.0000000000000000000, 0.0000000000000000000, 0.0000000000000000000 ) ) ;
#169 = DIRECTION ( 'NONE',  ( 0.0000000000000000000, 0.0000000000000000000, -1.000000000000000000 ) ) ;
#170 = APPLICATION_CONTEXT ( 'configuration controlled 3d designs of mechanical parts and assemblies' ) ;
#171 =( NAMED_UNIT ( * ) PLANE_ANGLE_UNIT ( ) SI_UNIT ( $, .RADIAN. ) );
#172 = APPROVAL_STATUS ( 'not_yet_approved' ) ;
#173 = CARTESIAN_POINT ( 'NONE',  ( 0.0000000000000000000, 0.0000000000000000000, -1000.000000000000000 ) ) ;
#174 = PERSON_AND_ORGANIZATION_ROLE ( 'creator' ) ;
#175 = MECHANICAL_CONTEXT ( 'NONE', #170, 'mechanical' ) ;
#176 = PERSON_AND_ORGANIZATION_ROLE ( 'design_owner' ) ;
#177 = APPROVAL ( #172, 'UNSPECIFIED' ) ;
#178 = EDGE_CURVE ( 'NONE', #25, #44, #80, .T. ) ;
#179 = AXIS2_PLACEMENT_3D ( 'NONE', #65, #59, #62 ) ;
#180 = PRODUCT_DEFINITION_FORMATION_WITH_SPECIFIED_SOURCE ( 'ANY', '', #70, .NOT_KNOWN. ) ;
#181 = CC_DESIGN_DATE_AND_TIME_ASSIGNMENT ( #256, #143, ( #224 ) ) ;
#182 = EDGE_CURVE ( 'NONE', #45, #41, #105, .T. ) ;
#183 = AXIS2_PLACEMENT_3D ( 'NONE', #39, #8, #47 ) ;
#184 = AXIS2_PLACEMENT_3D ( 'NONE', #151, #147, #152 ) ;
#185 = CC_DESIGN_PERSON_AND_ORGANIZATION_ASSIGNMENT ( #243, #161, ( #180 ) ) ;
#186 = CC_DESIGN_APPROVAL ( #191, ( #264 ) ) ;
#187 = AXIS2_PLACEMENT_3D ( 'NONE', #168, #142, #150 ) ;
#188 = EDGE_CURVE ( 'NONE', #7, #25, #81, .T. ) ;
#189 = CC_DESIGN_PERSON_AND_ORGANIZATION_ASSIGNMENT ( #247, #165, ( #180 ) ) ;
#190 = EDGE_CURVE ( 'NONE', #54, #7, #99, .T. ) ;
#191 = APPROVAL ( #156, 'UNSPECIFIED' ) ;
#192 = EDGE_CURVE ( 'NONE', #30, #46, #101, .T. ) ;
#193 = CC_DESIGN_APPROVAL ( #218, ( #180 ) ) ;
#194 = PRODUCT_RELATED_PRODUCT_CATEGORY ( 'detail', '', ( #70 ) ) ;
#195 = AXIS2_PLACEMENT_3D ( 'NONE', #149, #169, #145 ) ;
#196 = EDGE_CURVE ( 'NONE', #41, #46, #254, .T. ) ;
#197 = EDGE_CURVE ( 'NONE', #44, #25, #245, .T. ) ;
#198 = EDGE_CURVE ( 'NONE', #25, #46, #268, .T. ) ;
#199 = CC_DESIGN_SECURITY_CLASSIFICATION ( #264, ( #180 ) ) ;
#200 = CC_DESIGN_PERSON_AND_ORGANIZATION_ASSIGNMENT ( #238, #174, ( #224 ) ) ;
#201 = EDGE_CURVE ( 'NONE', #44, #41, #266, .T. ) ;
#202 = AXIS2_PLACEMENT_3D ( 'NONE', #42, #2, #64 ) ;
#203 = AXIS2_PLACEMENT_3D ( 'NONE', #28, #66, #1 ) ;
#204 = AXIS2_PLACEMENT_3D ( 'NONE', #34, #23, #164 ) ;
#205 = EDGE_CURVE ( 'NONE', #54, #44, #269, .T. ) ;
#206 = CC_DESIGN_PERSON_AND_ORGANIZATION_ASSIGNMENT ( #231, #176, ( #70 ) ) ;
#207 = CC_DESIGN_PERSON_AND_ORGANIZATION_ASSIGNMENT ( #255, #146, ( #264 ) ) ;
#208 = AXIS2_PLACEMENT_3D ( 'NONE', #31, #57, #17 ) ;
#209 = EDGE_CURVE ( 'NONE', #45, #30, #274, .T. ) ;
#210 = AXIS2_PLACEMENT_3D ( 'NONE', #18, #51, #48 ) ;
#211 = AXIS2_PLACEMENT_3D ( 'NONE', #173, #153, #166 ) ;
#212 = AXIS2_PLACEMENT_3D ( 'NONE', #56, #63, #12 ) ;
#213 = EDGE_CURVE ( 'NONE', #46, #41, #275, .T. ) ;
#214 = AXIS2_PLACEMENT_3D ( 'NONE', #43, #13, #49 ) ;
#215 = AXIS2_PLACEMENT_3D ( 'NONE', #60, #50, #52 ) ;
#216 = AXIS2_PLACEMENT_3D ( 'NONE', #10, #19, #16 ) ;
#217 = AXIS2_PLACEMENT_3D ( 'NONE', #9, #15, #38 ) ;
#218 = APPROVAL ( #167, 'UNSPECIFIED' ) ;
#219 = CC_DESIGN_DATE_AND_TIME_ASSIGNMENT ( #262, #157, ( #264 ) ) ;
#220 = CC_DESIGN_APPROVAL ( #177, ( #224 ) ) ;
#221 = EDGE_CURVE ( 'NONE', #30, #45, #246, .T. ) ;
#222 = AXIS2_PLACEMENT_3D ( 'NONE', #53, #36, #3 ) ;
#223 = EDGE_CURVE ( 'NONE', #7, #54, #260, .T. ) ;
#224 = PRODUCT_DEFINITION ( 'UNKNOWN', '', #180, #140 ) ;
#225 = CALENDAR_DATE ( 2018, 2, 4 ) ;
#226 = COORDINATED_UNIVERSAL_TIME_OFFSET ( 3, 0, .BEHIND. ) ;
#227 = ORGANIZATION ( 'UNSPECIFIED', 'UNSPECIFIED', '' ) ;
#228 = VECTOR ( 'NONE', #14, 1000.000000000000000 ) ;
#229 = COORDINATED_UNIVERSAL_TIME_OFFSET ( 3, 0, .BEHIND. ) ;
#230 = DATE_AND_TIME ( #257, #236 ) ;
#231 = PERSON_AND_ORGANIZATION ( #69, #227 ) ;
#232 = APPROVAL_DATE_TIME ( #240, #218 ) ;
#233 = APPROVAL_PERSON_ORGANIZATION ( #237, #218, #159 ) ;
#234 = SHAPE_DEFINITION_REPRESENTATION ( #141, #131 ) ;
#235 = PERSON_AND_ORGANIZATION ( #69, #227 ) ;
#236 = LOCAL_TIME ( 11, 4, 2.000000000000000000, #242 ) ;
#237 = PERSON_AND_ORGANIZATION ( #69, #227 ) ;
#238 = PERSON_AND_ORGANIZATION ( #69, #227 ) ;
#239 = CALENDAR_DATE ( 2018, 2, 4 ) ;
#240 = DATE_AND_TIME ( #225, #244 ) ;
#241 = APPROVAL_PERSON_ORGANIZATION ( #235, #177, #148 ) ;
#242 = COORDINATED_UNIVERSAL_TIME_OFFSET ( 3, 0, .BEHIND. ) ;
#243 = PERSON_AND_ORGANIZATION ( #69, #227 ) ;
#244 = LOCAL_TIME ( 11, 4, 2.000000000000000000, #229 ) ;
#245 = CIRCLE ( 'NONE', #202, 8.000000000000000000 ) ;
#246 = CIRCLE ( 'NONE', #187, 7.499999999999951200 ) ;
#247 = PERSON_AND_ORGANIZATION ( #69, #227 ) ;
#248 = CALENDAR_DATE ( 2018, 2, 4 ) ;
#249 = CALENDAR_DATE ( 2018, 2, 4 ) ;
#250 = COORDINATED_UNIVERSAL_TIME_OFFSET ( 3, 0, .BEHIND. ) ;
#251 = LOCAL_TIME ( 11, 4, 2.000000000000000000, #226 ) ;
#252 = APPROVAL_PERSON_ORGANIZATION ( #258, #191, #163 ) ;
#253 = APPROVAL_DATE_TIME ( #261, #191 ) ;
#254 = CIRCLE ( 'NONE', #203, 8.000000000000000000 ) ;
#255 = PERSON_AND_ORGANIZATION ( #69, #227 ) ;
#256 = DATE_AND_TIME ( #239, #263 ) ;
#257 = CALENDAR_DATE ( 2018, 2, 4 ) ;
#258 = PERSON_AND_ORGANIZATION ( #69, #227 ) ;
#259 = COORDINATED_UNIVERSAL_TIME_OFFSET ( 3, 0, .BEHIND. ) ;
#260 = CIRCLE ( 'NONE', #211, 7.499999999999951200 ) ;
#261 = DATE_AND_TIME ( #249, #251 ) ;
#262 = DATE_AND_TIME ( #248, #265 ) ;
#263 = LOCAL_TIME ( 11, 4, 2.000000000000000000, #259 ) ;
#264 = SECURITY_CLASSIFICATION ( '', '', #144 ) ;
#265 = LOCAL_TIME ( 11, 4, 2.000000000000000000, #250 ) ;
#266 = LINE ( 'NONE', #4, #267 ) ;
#267 = VECTOR ( 'NONE', #32, 1000.000000000000000 ) ;
#268 = LINE ( 'NONE', #22, #270 ) ;
#269 = LINE ( 'NONE', #11, #272 ) ;
#270 = VECTOR ( 'NONE', #35, 1000.000000000000000 ) ;
#271 =( GEOMETRIC_REPRESENTATION_CONTEXT ( 3 ) GLOBAL_UNCERTAINTY_ASSIGNED_CONTEXT ( ( #129 ) ) GLOBAL_UNIT_ASSIGNED_CONTEXT ( ( #154, #171, #160 ) ) REPRESENTATION_CONTEXT ( 'NONE', 'WORKASPACE' ) );
#272 = VECTOR ( 'NONE', #33, 1000.000000000000100 ) ;
#273 = APPROVAL_DATE_TIME ( #230, #177 ) ;
#274 = CIRCLE ( 'NONE', #204, 7.499999999999951200 ) ;
#275 = CIRCLE ( 'NONE', #195, 8.000000000000000000 ) ;
ENDSEC;
END-ISO-10303-21;
